Song name
# A B C D E F G H I J K L M N O P Q R S T U V W X Y Z

Tose Proeski - Malecka tab

-------------------------------------------------------------------------------
                              Malecka - Tose Proeski (intro)
-------------------------------------------------------------------------------
Tabbed by: imperatormk
E-mail: darko.simonovski@hotmail.com

Tuning: Standard tuning

Tabs: 

 e|-------------------|-------------------|--------------|
 B|-------------------|-------------------|--8--7--------|
 G|-7--7--7--7--9-----|-7--7--7--7--9-----|--------7--4--|
 D|----------------9--|----------------9--|--------------|
 A|-------------------|-------------------|--------------|
 E|-------------------|-------------------|--------------|

 e|10--10--10--10--12------10--10--12--10--10b|
 B|--------------------12---------------------|
 G|-------------------------------------------|
 D|-------------------------------------------|
 A|-------------------------------------------|
 E|-------------------------------------------|

This also repeats in the middle of the song.
Tap to rate this tab
# A B C D E F G H I J K L M N O P Q R S T U V W X Y Z