Song name
# A B C D E F G H I J K L M N O P Q R S T U V W X Y Z

Tosh Peter - Fire Fire tab

chords over the verse
|-----------------------|----------------------------------------|
|-----------------------|----------------------------------------|
|--1---4---3---3--------|----------------------------------------|
|--2---5---7---4--------|----------------------------------------|
|--2---5---7---4--------|----------------------------------------|
|--0---3---5---2--------|----------------------------------------|

riff over the verse
|------------------------------------------------------------------------|
|------------------------------------------------------------------------|
|------------------------------------------------------------------------|
|-----2---this second note gets some heavy trem bar abuse! --------------|
|--2---------------------------------------------------------------------|
|------------------------------------------------------------------------|

riff between verse
|----------------------------------------------------------------|
|----------------------------------------------------------------|
|----------------------------------------------------------------|
|----------------------------------------------------------------|
|------------------2---------------------------------------------|
|--0-0--3-3---2-2------------------------------------------------|

riff over the chorus
|----------------------------------------------------------------|
|----------------------------------------------------------------|
|----------------------------------------------------------------|
|---2--0---------------------------------------------------------|
|---------3--2---------------------------------------------------|
|----------------------------------------------------------------|

chords over the chorus
|---------------------------------------------|
|---------------------------------------------|
|--1--4--6--3-----4--4--6--3----1--4--6--3--4-|
|--2--5--7--4-----5--5--7--4----2--5--7--4--4-|
|--2--5--7--4-----3--5--7--4----2--5--7--4--2-|
|--0--3--5--2-----0--3--5--2----0--3--5--2----|

solo (note: listen out for the trem bar on the various double stops etc., etc..)
|--------------------------------------------------------------------------------|
|--------------------------------------------------------------------------------|
|--------------------------------------------------------------------------------|
|--2---0---------------------------2---------------------------------------------|
|--------3-2----------------0--3-5-----3-2--------0--2------0--2---2-1-0---------|
|-------------3-2-0-----3-2----------------0--0-3---------3----------------3-2-0-|

|------------------------------------------------|
|------------------------------------------------|
|------------------------------------------------|
|------------------------------------------------|
|------------------2-------------------2---------|
|--0---3-3---2-2------0-0---3-3---2-2------------|


|-12--12-15-15-15-15-15---15-15-15-15-15-15---15-12--------12-----------------------------|
|-12--12-14-14-14-14-14---14-14-14-14-14-14---14----15-12------15--12------12-------------|
|------------------------------------------------------------------14^(15)----15-12-14-12-|
|-----------------------------------------------------------------------------------------|
|-----------------------------------------------------------------------------------------|
|-----------------------------------------------------------------------------------------|

|-------------------9-10-----12-12--------------------------------------------------------|
|------10-11-12-12-----------------15-12---------------------12----12---------------------|
|---12-----------------------------------14-12-----12--12h14-12-14-12---------------------|
|-----------------------------------------------14----------------------14-14-14-14-------|
|-----------------------------------------------------------------------------------------|
|-----------------------------------------------------------------------------------------|

|----------------------------------------------------------------|
|-------12----------12----------12------------12---------12------|
|-12-14------14^(15)-----14^(15)-------14^(15)----14^(15)--------|
|----------------------------------------------------------------|
|----------------------------------------------------------------|
|----------------------------------------------------------------|

|---------------------------------------------------------------------------------------------|
|-----------12----------12------------12---------12------12--12--12---------12------12-12-12--|
|----14^(15)-----14^(15)-------14^(15)----14^(15)--------12--12--12--14^(15)---12---12-12-12--|
|---------------------------------------------------------------------------------------------|
|---------------------------------------------------------------------------------------------|
|---------------------------------------------------------------------------------------------| 
Tap to rate this tab
# A B C D E F G H I J K L M N O P Q R S T U V W X Y Z