Song name
# A B C D E F G H I J K L M N O P Q R S T U V W X Y Z

Toshio Masuda - Kaze No Tamakura tab

Hi,
well first, the song is, as you prolly already noticed, best played by a steel string guitar...
I really like this song, so hopefully you do or will do as well ;)

----------------------------

1st guitar -intro-
e-----------------------------------------------------------------------------------------
b-----0-1r~--------0r~------0-1r~-------0r~-------------------0r~-------0-1r~------0-1r~--
g----------------2--------------------2----------0-2r~------2-----------------------------
d---2---------------------2-------------------------------------------2----------2--------
a-0------------3--------0-----------3----------3----------3---------0----------0----------
E------------1--------------------1----------1----------1---------------------------------

2nd guitar comes in, meanwhile guitar 1 keeps playing:

1st guitar -background-

	repeat -intro- once
then:
e-----------------------
b------------------0r~--
g-----0-2r~~-----2------
d-----------------------
a---3----------3--------
E-1----------1----------

                      
2nd guitar -lead-
e------------------------------------------------------------------------------
b-1s5r~--5h8-3r~--1s5r~--5h8s10~--3r~--1p0----------1p0----------0~-----0h2r~--
g------------------------------------------0-0h2r~------0-0h2r~------2---------
d------------------------------------------------------------------------------
a------------------------------------------------------------------------------
E------------------------------------------------------------------------------

break

e--------------------------------------------
b-1p0----------1p0---------------------------
g-----0-0h2r~-------0-0h2r~--0~-----0h2r~----
d--------------------------------2-----------
a--------------------------------------------
E--------------------------------------------


eventually play in the end:
e-(12)-
b-(12)-
g-(12)-
d------
a------
E------

(12) means flageolet tone

------------------------------------------------------------

devoted to my love Jessi, hehe ;P
Sry guys, couldn't help it ^.^

Anyways, have fun playing it!
Tap to rate this tab
# A B C D E F G H I J K L M N O P Q R S T U V W X Y Z