Song name
# A B C D E F G H I J K L M N O P Q R S T U V W X Y Z

Toshio Masuda - Jiraiyas Theme tab

Jiraiya's Theme

Tuning: E-A-D-G-B-e

v - Vibratto                     ) - Bend     )\  - Bend and release
P - Palm Muting                 /            /  \
/ - Slide
U - Upstroke (Sweep picking)
D - Downstroke (Sweep picking)
p - Pull-off
h - Hammer-on
ph - Pinch Harmonic

=============================Main Riff=============================


Starts with a pick slide followed by a slide (E string).

   P   P P   P   P P              P   P P
e|-----------------------------------------------------------------|
B|-----------------------------------------------------------------|
G|---5-----7---5-----7--7-5---------5-----7--5v--------------------|
D|---5-----7---5-----7--7-5-7-5-----5-----7----7-5-----------------|
A|-0-3-0-0-5-0-3-0-0-5------7-5---0-3-0-0-5--------7-6-5-----------|
E|-------------------------------------------------------8-5-------|


   P   P P    P   P P              P   P P   P    P P P P P P P
e|-----------------------------------------------------------------|
B|-----------------------------------------------------------------|
G|---5-----7v---5-----7--7-5---------5-----7---5----------7-9-10---|
D|---5-----7v---5-----7--7-5-7-5-----5-----7---5------7-9----------|
A|-0-3-0-0-5v-0-3-0-0-5------7-5---0-3-0-0-5-0-3--7-8--------------|
E|-----------------------------------------------------------------|


=============================Verse 1===============================


     P P   P P   P   P P   P P   P   P P   P P   P   P P   P P
e|-----------------------------------------------------------------|
B|-----------------------------------------------------------------|
G|-----------------------------------------------------------------|
D|-7-----7-----7---7-----7-----7---7-----7-----7---7-----7---------|
A|-7-----7-----7---7-----7-----7---7-----7-----7---7-----7---------|
E|-5-5-5-5-5-5-5-5-5-5-5-5-5-5-5-5-5-5-5-5-5-5-5-5-5-5-5-5-5-5-10/-|


     P P   P P   P   P P   P P   P   P P   P P   P
e|-----------------------------------------------------------------|
B|-----------------------------------------------------------------|
G|-----------------------------------------------------------------|
D|-7-----7-----7---7-----7-----7---7-----7-----7---7--9-7----------|
A|-7-----7-----7---7-----7-----7---7-----7-----7---7------8-7------|
E|-5-5-5-5-5-5-5-5-5-5-5-5-5-5-5-5-5-5-5-5-5-5-5-5-5----------8-7-8|


     P P   P P   P   P P   P P   P   P P   P P   P   P P   P P
e|-----------------------------------------------------------------|
B|-----------------------------------------------------------------|
G|-----------------------------------------------------------------|
D|-7-----7-----7---7-----7-----7---7-----7-----7---7-----7---------|
A|-7-----7-----7---7-----7-----7---7-----7-----7---7-----7---------|
E|-5-5-5-5-5-5-5-5-5-5-5-5-5-5-5-5-5-5-5-5-5-5-5-5-5-5-5-5-5-5-10/-|


     P P   P P   P   P P   P P   P   P P   P P   P    P P P P P P P
e|-------------------------------------------------------------------|
B|-------------------------------------------------------------------|
G|------------------------------------------------------------7-9-10-|
D|-7-----7-----7---7-----7-----7---7-----7-----7---7------7-9--------|
A|-7-----7-----7---7-----7-----7---7-----7-----7---7--7-8------------|
E|-5-5-5-5-5-5-5-5-5-5-5-5-5-5-5-5-5-5-5-5-5-5-5-5-5-----------------|


=============================Solo 1=================================


  (full)                       (full)
    )                            )\
   /                            /  \
e|--------------------------------------------------------------------------|
B|---5-6-9-5h6p5-6-5h6p5----------------------------------------------------|
G|-7---------------------7-5-7-7-----7p5-7-5h7p5/4-5p4----------------------|
D|-----------------------------------------------------7-5-7p5/3-5-3h5p3/2v-|
A|--------------------------------------------------------------------------|
E|--------------------------------------------------------------------------|


                                                              (full)    (full)
                                                                )\         )
   P P  P P P                                                  /  \       /
e|--------------------------------------------------------------------------|
B|------------8-10p8------12p10-------13p12-------15p13---------------------|
G|--------7-9--------10p9-------12p10-------14p12-------16p14-19---19p17-19v|
D|-7-9-10-------------------------------------------------------------------|
A|--------------------------------------------------------------------------|
E|--------------------------------------------------------------------------|


            (full)(full)
              )     )\ 
             /     /  \ 
e|---------------------------------------|
B|-17-20p17----20------------------------|
G|----------19----19---19p17-19p17-------|
D|---------------------------------19v/--|
A|---------------------------------------|
E|---------------------------------------|


=============================Main Riff 2=============================


          (add ph where you want)
   P   P P    ph-------------|    P   P P   P   P P
e|--------------------------------------------------------------------|
B|--------------------------------------------------------------------|
G|---5-----7--5v--------------------5-----7---5-----7-7-5-------------|
D|---5-----7----7-5-----------------5-----7---5-----7-7-5-7-5---------|
A|-0-3-0-0-5--------7-6-5---------0-3-0-0-5-0-3-0-0-5-----7-5---------|
E|------------------------8-5-----------------------------------------|


   P   P P   P
e|--------------------------------|
B|--------------------------------|
G|---5-----7---5------------------|
D|---5-----7---5--9-7-------------|
A|-0-3-0-0-5-0-3------8-7---------|
E|------------------------8-7-8---|


=============================Solo 2=================================



e|-13-10-12-10----10--------------------------------------------------------|
B|-------------13----13-12-10-12-10----10-----------------------------------|
G|----------------------------------13----13-10-9-10-9-7-9-7----7-----------|
D|-----------------------------------------------------------10---10-9-7-9--|
A|--------------------------------------------------------------------------|
E|--------------------------------------------------------------------------|


(this part of the solo is not audible but I tried to predict it and
 improvised in E Phrygian Dominant)

                  P-------------------------------------------------|
e|--------------------------------------------------------------------------|
B|--------------------------------------------------------------------------|
G|-------------------------------------------------9-10-12-10-9-10-12-------|
D|-7----7----------------7-9-10-9-10-12-10-9-10-12--------------------------|
A|---11---11-8-7--7-8-11----------------------------------------------------|
E|--------------------------------------------------------------------------|


                    (full)
                       )
                      /
e|----------13p12p10-----10-12----10-13p12p10-------------------------------|
B|-13p12p10----------13v-------13-------------13p12p10-13p10----10h12v------|
G|-----------------------------------------------------------12-------------|
D|--------------------------------------------------------------------------|
A|--------------------------------------------------------------------------|
E|--------------------------------------------------------------------------|


                                                   (half) (full) (full)    (full)
                                                      )     )\     )\      )
    D       U  U   D       U  U  D        U  U       /     /  \   /  \    /
e|-10h13p10-------13h16p13-------16h19p16--------19-19----22---22-22--22-22v-|
B|----------12-------------15-------------18---------------------------------|
G|-------------10-------------13-------------16------------------------------|
D|---------------------------------------------------------------------------|
A|---------------------------------------------------------------------------|
E|---------------------------------------------------------------------------|


=============================Main Riff 3=============================


          (add ph where you want)
   P   P P    ph-------------|    P   P P   P   P P
e|--------------------------------------------------------------------|
B|--------------------------------------------------------------------|
G|---5-----7--5v--------------------5-----7---5-----7-7-5-------------|
D|---5-----7----7-5-----------------5-----7---5-----7-7-5-7-5---------|
A|-0-3-0-0-5--------7-6-5---------0-3-0-0-5-0-3-0-0-5-----7-5---------|
E|------------------------8-5-----------------------------------------|


   P   P P   P
e|-------------------------------------------------|
B|-------------------------------------------------|
G|---5-----7---5-----------------------------7-7---|
D|---5-----7---5--9-7------------7-7-5-5-4-4-7-7---|
A|-0-3-0-0-5-0-3------8-7--------7-7-5-5-4-4-5-5---|
E|------------------------8-7-8--5-5-3-3-2-2-------|
Tap to rate this tab
# A B C D E F G H I J K L M N O P Q R S T U V W X Y Z