Song name
# A B C D E F G H I J K L M N O P Q R S T U V W X Y Z

Toshio Masuda - Rising Fighting Spirit tab

This is my first tab sry if i made any mistakes.and sry for only tabbing the 
me at raceofidiots@yahoo.com
p=pull-off

E|-----------------------------------------|
B|-----------------------------------------|
G|-------------------------------------7---|
D|-------------------------------------7-7-|
A|-------------2p0---------------------5-7-|       Riff 1
E|-0-0-0-3-2-0-----3-5-3-2-0-0-0-3-2-0---5-|

E|---------------------------------|
B|---------------------------------|
G|-------------------------5-5-4-4-|
D|-------------------------5-5-4-4-|
A|-------------2p0---------3-3-2-2-|
E|-0-0-0-3-2-0-----3-5-3-2---------|
Tap to rate this tab
# A B C D E F G H I J K L M N O P Q R S T U V W X Y Z