Song name
# A B C D E F G H I J K L M N O P Q R S T U V W X Y Z

Toshio Masuda - Sadness And Sorrow tab

Tuning: C a d g b e

I think most of the notes are correct. There are some parts where you need to let it

ring which I have not included, but just listen to the music and you should be able to work it

out! I have tried to keep it close to the original as possible. Criticism is welcome. Enjoy!

             Q    Q    Q    Q       Q    Q    Q    Q       Q    Q    Q    Q     
E||-------|--5----7--------------|----------------------|----------------------|
B||-------|-----------------8----|-------7---------5----|----------------------|
G||-------|----------------------|----------------------|------------7----4----|
D||-------|------------5---------|-------4----7---------|-------5--------------|
A||-------|--3----7--------------|--5-------------------|--7-------------------|
C||-------|----------------------|----------------------|----------------------|


  W                   Q    Q    Q    Q       Q    Q    H         
-------------------|-------5--------------|------------7--------|
-------------------|------------8----7----|---------------------|
-------------------|----------------------|---------------------|
-------------------|------------5---------|-------4----7--------|
-------------------|--3----7--------------|--5------------------|
-------------------|----------------------|---------------------|


                                                                 
  Q    Q    Q    Q       Q    Q    Q    Q       Q    Q    Q    Q     
--7-------------------|--5-------------------|--5----7--------------|
----------------------|----------------------|------------5----8----|
-----------------4----|----------------------|----------------------|
------------5---------|------------4----7----|------------5---------|
-------5--------------|-------5--------------|--3----7--------------|
--7-------------------|--6-------------------|----------------------|


  Q    Q    Q    Q       Q    Q    Q    Q       W                 
----------------------|----------------------|-------------------|
-------7---------5----|----------------------|-------------------|
----------------------|------------7----4----|-------------------|
-------4----7---------|-------5--------------|-------------------|
--5-------------------|--7-------------------|-------------------|
----------------------|----------------------|-------------------|


  Q    Q    Q    Q       Q    Q    Q    Q       Q    Q    Q    Q     
--3----5--------------|----------------------|--0-------------------|
------------8----7----|----------------------|----------------------|
----------------------|------------4---------|------------4----0----|
------------5---------|----------------------|------------4---------|
--3----7--------------|--5----0--------------|------------2---------|
----------------------|------------6----2----|--0----4--------------|


  W                   E  E  Q    Q    Q       Q    Q    Q    Q     
-------------------|-----------------------|----------------------|
-------------------|--7--5-----------------|------------5----8----|
-------------------|--------4--------------|----------------------|
-------------------|-------------5----4----|----------------------|
-------------------|-------------7---------|-------5--------------|
-------------------|--4-----7--------------|----------------------|


  Q    Q    Q    Q       Q    Q    Q    Q       Q    Q    Q    Q     
--5-------------------|----------------------|--3-------------------|
------------5---------|----------------------|--5-------------------|
----------------------|----------------------|----------------------|
----------------------|----------------------|----------------------|
------------7----5----|-------3--------------|------------0----5----|
--0----7--------------|------------7----0----|--2----6--------------|


                         ^                      ^                      
  Q    Q    Q    Q       Q    Q    Q    Q       Q    Q    E  E  E  E   
------------5---------|--7-------------------|--5---------5--2--------|
--7----8--------------|--8---------0----0----|--3---------------3-----|
-----------------7----|--7---------7---------|------------2--------2--|
--7----4---------7----|-------0----5---------|------------4-----4-----|
------------5---------|----------------------|-------0----------------|
----------------------|--7-------------------|--2---------------------|


  E  E  Q    Q    Q       Q    Q    Q    Q       Q    Q    Q    Q     
-----------------------|-----------------3----|--5-------------------|
--7--5------------5----|------------5---------|------------5---------|
--------4----4---------|----------------------|------------5----7----|
-------------4---------|-------9--------------|-------5--------------|
-------------2---------|------------7----2----|----------------------|
--4-----7--------------|----------------------|--0-------------------|


  Q    Q    Q    Q       Q    Q    Q    Q       Q    Q    Q    Q     
----------------------|--3-------------------|------------5---------|
----------------------|--5-------------------|--7----8--------------|
-------5--------------|----------------------|-----------------7----|
------------5---------|----------------------|--7----4---------7----|
-----------------3----|------------0----5----|------------5---------|
----------------------|--2----6--------------|----------------------|


  Q    Q    Q    Q       Q    Q    H           Q    Q    Q    Q     
----------------------|---------------------|----------------------|
--5---------8----7----|---------------------|------------8----7----|
------------9---------|-------7-------------|------------9---------|
------------9---------|---------------------|------------9---------|
-------7--------------|---------------------|-------7--------------|
--4-------------------|---------------------|--4-------------------|


  Q    Q    Q    Q       Q    Q    Q    Q       Q    Q    Q    Q     
----------------------|--5----7--------------|-------2--------------|
-------5----7----8----|------------5----8----|------------3----5----|
----------------------|------------5---------|------------2---------|
----------------------|-------5--------------|-------4--------------|
----------------------|----------------------|----------------------|
----------------------|--0-------------------|--2-------------------|


  Q    Q    Q    Q       Q    Q    H           Q    Q    Q    Q     
----------------------|---------------------|-------5--------------|
------------8----7----|---------------------|--8---------8----7----|
------------9---------|-------7-------------|------------9---------|
------------9---------|---------------------|-------5--------------|
-------7--------------|---------------------|----------------------|
--4-------------------|---------------------|--0-------------------|


                         ^                      ^                    
  Q    Q    Q    Q       Q    Q    Q    Q       Q    Q    Q    Q     
------------7---------|--7-------------------|--5-------------------|
------------8---------|--8---------8---------|--3-------------------|
------------7---------|--7---------7---------|------------7---------|
-------4--------------|-----------------9----|------------7----4----|
----------------------|-------5--------------|-------0--------------|
--2-------------------|--7-------------------|--2-------------------|


  Q    Q    Q    Q       Q    Q    Q    Q       Q    Q    Q    Q     
--5----7--------------|-------2--------------|----------------------|
------------5----8----|------------3----5----|------------8----7----|
------------5---------|------------2---------|------------9---------|
-------5--------------|-------4--------------|------------9---------|
----------------------|----------------------|-------7--------------|
--0-------------------|--2-------------------|--4-------------------|


  Q    Q    H           Q    Q    Q    Q       Q    Q    Q    Q     
---------------------|-------5--------------|----------------------|
---------------------|--8---------8----7----|------------3---------|
-------7-------------|------------9---------|------------4---------|
---------------------|-------5--------------|-------4--------------|
---------------------|----------------------|----------------------|
---------------------|--0-------------------|--2-------------------|


   Q     Q    Q    Q       Q    Q    H           Q.     Q.     Q     
--12--------------------|---------------------|---------------------|
--------------5---------|---------------------|---------------------|
--------------5---------|--7------------------|---------------------|
------------------------|---------------------|---------------------|
--------10--------------|---------------------|----------------2----|
---0--------------------|---------------------|--4------7-----------|


                                                              ^     
  E  Q.     Q.     E     Q    Q.     Q.        Q    H         Q     
----------------------|---------------------|----------------12----|
-------------------0--|--L----3------0------|-----------------8----|
------------0---------|---------------------|-----------------9----|
-----2----------------|---------------------|----------------------|
--L-------------------|---------------------|----------------------|
----------------------|---------------------|----------------------|


  W                  
--L----------------||
--L----------------||
--L----------------||
-------------------||
-------------------||
-------------------||


W - whole
H - half
Q - quarter
. - note dotted
L - tied note
Tap to rate this tab
# A B C D E F G H I J K L M N O P Q R S T U V W X Y Z