Song name
# A B C D E F G H I J K L M N O P Q R S T U V W X Y Z

Toshio Masuda - Sadness And Sorrow tab

Standard tuning, This is to be played as a classical piece, but good luck playing
it not classically!

E---------3-2--------------3-2--------2p0-----0-3-5-------|
B---5----------3-----5----------0----------0---------5----|
G---------------------------------------------------------|
D------2----------------2---------------------------------|
A-------------------------------------------------0-------|
E---0----------------0----------------0-------------------|

E--3p2-2-3-5----7--5--2----2p0-----------------3p2--2-3-5-|
B------------3------------------0---0-3-5-----------------|
G------------------------------------------5--------------|
D---------------------------------------------------------|
A---------------0-----------------------0-----------------|
E--0-----------------------0-------------------0----------|

E---------3-2----------3-2-------0-2-3--5-0-3--2--0--0-2-3-|
B--3--5-------3---5---------0------------------------------|
G----------------------------------------------------------|
D-------2------------2-------------------------------------|
A-------------------------------------------0--------------|
E-----0-----------0--------------0-----------------------0-|

E--5-2---7-7--5--5-7-0-3-2-0----------3-2-----------3-2----|
B-----------------------------3---5-------3---5----------0-|
G----------------------------------------------------------|
D-----------------------------------2-------------2--------|
A----------0-----------------------------------------------|
E---------------------------------0-----------0------------|
Tap to rate this tab
 
# A B C D E F G H I J K L M N O P Q R S T U V W X Y Z