Song name
# A B C D E F G H I J K L M N O P Q R S T U V W X Y Z

Toshio Masuda - Sadness And Sorrow tab

Tabbed by: Zach101


Tuning: Half-Step Down (Can play it in standard as well)

e|2---2---2---2---0---0---0---0-----------------------------------|
B|0---0---0---0---0---0---0---0---5---5---5---5---1---1---1---1---|
G|--------------------------------4---4---4---4---2---2---2---2---|
D|--2---2---2---2---2---2---2---2---4---4---4---4---2---2---2---2-|
A|----------------------------------------------------------------|
E|----------------------------------------------------------------|

e|----------------------------0---5---5---5---5---7---7-----------|
B|3---3---3---3---1---1---1-------------------------------7---7---|
G|2---2---2---2---2---2---2---2---4---4---4---4---4---4---4---4---|
D|--2---2---2---2---2---2---2---2---4---4---4---4---4---4---4---4-|
A|----------------------------------------------------------------|
E|----------------------------------------------------------------|

e|----3-2-------------3-2---------2-0----0--|
B|-----------3---------------0--------0--3--|
G|---------------------------------------0--|
D|--2---------------2--------------------2--|
A|------------------------------------------|
E|0---------------0---------------0---------|

e|0-3-5---------------3-----3-2-3-5---7---7----5-----2-2-0----0--|
B|--------5---------------3---------3--------------3-------0--3--|
G|--------5---5---5-----2-----0---------7--------2------------0--|
D|------5---5---5---5-0---------------5--------0--------------2--|
A|----3----------------------------------------------------------|
E|-----------------------------------------------------0---------|

e|0-3-5---------------3-----3-2-3-5---0---3-2----|
B|--------5---------------3---------3---------3--|
G|--------5---5---5-----2------------------------|
D|------5---5---5---5-0-------0---------2--------|
A|----3------------------------------------------|
E|------------------------------------0----------|

e|----3-2-0-2-3-5-7-0-3-2--------0-------0--------3-5-3-2-----7--|
B|--------0-----------------3--------0-------0--------0---3------|
G|------------------0-----2--------------------------------------|
D|--2-------------------0----------2---2------------------0---7--|
A|--------------3---------------------------------3--------------|
E|0------------------------------0-------------------------------|

e|7-------5---2---5-7-0-3---2-----0-----3-2---0---3-5-3-2--------|
B|------0-------3-------------3-----------------------1---3---0--|
G|----0-----2---------0---------2-----0--------------------------|
D|--0-----0---------------0---------2---------------2-----0------|
A|----------------3-------------------------------3--------------|
E|3-------------------------------0------------------------------|

e|-0---0-------0-------0-------0-------0-------0-------0-------0----|
B|-------1-------1-------0-------0-------1-------1-------0-------0--|
G|0--0-------0-------0-------0-------0-------0-------0-------0------|
D|------------------------------------------------------------------|
A|-3-------3-------2-------2-------3-------3-------2-------2--------|
E|------------------------------------------------------------------|

e|----0-------0-------0---0-----------------------------------------|
B|------1-------1-------0-0-----------------------------------------|
G|--0-------0-------0-----0-----------------------------------------|
D|------------------------------------------------------------------|
A|3-------3-------2-------2-----------------------------------------|
E|------------------------------------------------------------------|


************************************

| /   slide up
| \   slide down
| h   hammer-on
| p   pull-off
| ~   vibrato
| +   harmonic
| x   Mute note
| b   Bend
| pb  Pre-bend
| br  Bend release
| pbr Pre-bend release
| brb Bend release bend

************************************
Tap to rate this tab
 
# A B C D E F G H I J K L M N O P Q R S T U V W X Y Z