Toshio Masuda - Hinata Vs Neji tab

Hey everyone! This is the song from Naruto, when Hinata and Neji fight in the Chunin 
final round preliminaries. Just remember to listen to the song first to learn this.

                        Hinata vs Neji
                                    Naruto
                                Toshiro Masuda
Capo 3

E||---------------0-----7-----|--7--------5-3-2-----------|
B||---------0-----------------|--------0------------3-----|
G||*--------------------------|-----0------------0-----0--|
D||*-----2-----2-----2-----2--|--0------------0-----------|
A||---------------------------|---------------------------|
D||---2-----------------------|---------------------------|


--0------------------------|---------------------------||
-----------0---0--------0--|--------------3------------||
--------0----2-------0-----|--2--------2--------------*||
-----2------------2--------|--------0-----------4-----*||
--3------------3-----------|-----0-----------0-----0---||
---------------------------|--0-----------0------------||

--0--------0--2---------|--3--------2-------0---||--------------0-----7-----|
--------0----------3----|--------3-------------0||--------0-----------------|
-----------2------------|-----2----------2------||*-------------------------|
-----2--------0---------|--2--------------------||*----2-----2-----------2--|
--3---------------------|-----------------------||--------------------------|
------------------------|-----------------------||--2--------------x--------|


--7--------5-3-2-----------|--0------------------------|
---------------------3-----|-----------0---0--------0--|
-----0------------------0--|-------------2-------------|
--0------------0-----------|-----2------------2--------|
---------------------------|--3------------3-----------|
--------x---------x--------|--------x------------x-----|

---------------------------||--0-----------2----------|--0-----------0-----|
--------------3------------||-----------0--------3----|--------0-----------|
--2--------2--------------*||-----------------2-------|-----0--------------|
--------------------4-----*||-----2-------------------|--2-----------------|
-----0-----------0-----0---||--3-----------2----------|--------------------|
--0-----x-----0------------||--------x----------------|-----------x--------|


--0----------------------0-|--------------------------|
--------0-----0-----0--3---|--3-----------3-----1-----|
-----0-----0-----0---------|--------2-----------------|
--2------------------------|-----4-----4-----4-----0--|
---------------------------|--5-----------------------|
---------------------------|--------------------------|


--------------0-----3-----|--5--------3-5-7-----7-----|
--0-----------------------|---------------------------|
--------0-----------------|--------2------------------|
-----2-----2-----2-----2--|-----4------------5-----5--|
--3-----------------------|--2------------2-----------|
--------------------------|---------------------------|


--5--------------------8-5-|--3--------2s-3-3----2----3--|
--------1-----1-----1------|--------1--------------------|
-----2-----2-----2---------|-----2-------------2----2----|
--3------------------------|--2-------------2------------|
---------------------------|-----------------------------|
---------------------------|-----------------------------|


--0-----------0--------3--|--5-----------7-----------|
-----------0--------------|--------------------------|
--------2-----2-----2-----|--------2-----------------|
-----2-----------2--------|-----2-----2--------9-----|
--0-----------0-----------|--2--------------9-----9--|
--------------------------|--------------9-----------|


|---------------0-----7-----|--7--------5-3-2-----------|
|---------0-----------------|---------------------3-----|
|*--------------------------|-----0------------------0--|
|*-----2-----2-----------2--|--0------------0-----------|
|---------------------------|---------------------------|
|---2--------------x--------|--------x---------x--------|


--0------------------------|---------------------------||
-----------0---0--------0--|--------------3------------||
-------------2-------------|--2--------2--------------*||
-----2------------2--------|--------------------4-----*||
--3------------3-----------|-----0-----------0-----0---||
--------x------------x-----|--0-----x-----0------------||


--0-----------2----------|--0-----------0------||---------------------------|
-----------0--------3----|--------0-----0------||---0-----------------0-----|
-----------------2-------|-----0--------0------||*--0-----------2-----------|
-----2-------------------|--2-----------2------||*--2-----------------------|
--3-----------2----------|---------------------||------2-----2-----2-----2--|
--------x----------------|-----------x---------||---2-----x-----------------|


--------------------------|--------------------------|
--------------------------|--------------------3-----|
--------------------0-----|--2-----------0-----------|
--2-----------2--4-----2--|--2--2-----2-----2-----2--|
--2--2-----2--------------|--0-----------------------|
--0-----x-----------------|--------x-----------------|

-----------------------||-------------------------|--------------------0----|
--0--------------------||-------------------------|-----------------0-------|
--0-----------2-------*||--0-----------2----------|-----------0-------------|
--2--2-----2--2----4--*||--2--2-----2--2--2--4----|--2-----2-----2----------|
--3-----------2--------||--3-----------2----------|--2--2-------------------|
--------x--------------||--------x----------------|--2----------------------|

--0----------------------0-|--------------------------|
--0-----0-----0-----0--3---|--3-----------3-----1-----|
--0--0-----0-----0---------|--2-----2-----------------|
--2------------------------|--4--4-----4-----4-----0--|
---------------------------|--5-----------------------|
---------------------------|--------------------------|


--------------0-----3-----|--5--------3-5-7-----7-----|
--0-----------------------|---------------------------|
--0-----0-----------------|--2-----2------------------|
--2--2-----2-----2-----2--|--4--4------------5-----5--|
--3-----------------------|--2------------2-----------|
--------------------------|---------------------------|


--5--------------------8-5-|--3--------2s-3-3----2----3--|
--1-----1-----1-----1------|--1-----1--------------------|
--2--2-----2-----2---------|--2--2-------------2----2----|
--3------------------------|--2-------------2------------|
---------------------------|-----------------------------|
---------------------------|-----------------------------|


--0-----------0--------3--|--5-----------7-----------|
--0--------0--------------|--------------------------|
--2-----2-----2-----2-----|--2-----2-----------------|
-----2-----------2--------|--2--2-----2--9-----9-----|
--0-----------0-----------|--2-----------9--9-----9--|
--------------------------|--------------9-----------|

|---------------0-----7-----|--7--------5-3-2-----------|
|---------0-----------------|--0-----0------3-----3-----|
|*--------------------------|-----0------------0-----0--|
|*-----2-----2-----2-----2--|--0------------0-----------|
|---------------------------|---------------------------|
|---2-----------------------|---------------------------|


--0------------------------|---------------------------||
--0--------0---0--------0--|--------------3------------||
--0-----0----2-------0-----|--2--------2--2-----------*||
-----2---------2--2--------|--0-----0-----------4-----*||
--3------------3-----------|--0--0-----------0-----0---||
---------------------------|--0-----------0------------||


--0--------0--2---------|--3--------------------0--|-----------0----5----7--|
--0-----0-----3----3----|--------3-----------0-----|--------0---------------|
--0--------2--2---------|--2--2-----2-----0--------|------------------------|
-----2--------0---------|--2-----------0-----------|-----2------------------|
--3---------------------|--------------------------|------------------------|
------------------------|--------------------------|--2---------------------|

---L----<>12------------|--L----------------||
------------------------|-------------------||
------------------------|-------------------||
------------------------|-------------------||
------------------------|-------------------||
------------------------|-------------------||


Tablature Legend
----------------
L - tied note
x - dead note
g - grace note
(n) - ghost note
> - accentuded note
NH - natural harmonic
AH - artificial harmonic
TH - tapped harmonic
SH - semi harmonic
PH - pitch harmonic
h - hammer on
p - pull off
b - bend
br - bendRelease
pb - preBend
pbr - preBendRelease
brb - bendReleaseBend
\n/ - tremolo bar dip
\n - tremolo bar dive
-/n - tremolo bar Release up
/n\ - tremolo bar inverted dip
/n - tremolo bar return
-\n - tremolo bar Release down
S - shift slide
s - legato slide
/ -  slide into from below or out of upwards
\ -  slide into from above or out of downwards
~ - vibrato
W - wide vibrato
tr - trill
TP - tremolo picking
T - tapping
S - slap
P - pop
< - fade in
^ - brush up
v - brush down
Tap to rate this tab
 
# A B C D E F G H I J K L M N O P Q R S T U V W X Y Z