Song name
# A B C D E F G H I J K L M N O P Q R S T U V W X Y Z

Toshio Masuda - Kokuten tab

Hey all, this is my first 'uploaded' tab.

This tab can also be used along-side my Youtube video guide on how to play each part 
which you can find here:
http://youtu.be/XAzh0G4bC0U

This is played in...
Standard EADGBE


Lead:

E|--------------------------------------|
B|--------------------------------------|
G|--------------------------------------|
D|--7-----------5-----------------------|
A|-----5--5--5-----5--5--5--8--7--5--3--|
E|--------------------------------------|(x13)


E|--------------------|
B|--------------------|
G|--------------------|
D|--7--3--5--3--2--0--|
A|--------------------|
E|--------------------|



E|---------------------|
B|---------------------|
G|---------------------|
D|--0--7--10--9--5--7--|
A|---------------------|


E|--------------------------|
B|--------------------------|
G|--7--10--10--9--10--9--7--|
D|--------------------------|
A|--------------------------|
E|--------------------------|



E|-------------------------|
B|-------------------------|
G|--7--10--14--12--12--14--|
D|-------------------------|
A|-------------------------|
E|-------------------------|



E|-----------------------|
B|-----------------------|
G|--10--7--10--9--10--7--|
D|-----------------------|
A|-----------------------|
E|-----------------------| (x2)



E|---------------------------|
B|---------------------------|
G|--10--7--10--9--10--7--14--|
D|---------------------------|
A|---------------------------|
E|---------------------------|


Rhythem (Or Bass):
E|--------------------------|
B|--------------------------|
G|--7-7-7-7-7--777----------|
D|--7-7-7-7-7--777----------|
A|--5-5-5-5-5--555----------|
E|--------------------------| (x2)

E|--------------------------|
B|--------------------------|
G|--3-3-3-3-3--333----------|
D|--3-3-3-3-3--333----------|
A|--1-1-1-1-1--111----------|
E|--------------------------| (x2)
Tap to rate this tab
# A B C D E F G H I J K L M N O P Q R S T U V W X Y Z