Song name
# A B C D E F G H I J K L M N O P Q R S T U V W X Y Z

Toshiro Masuda - Naruto - The Rising Fighting Spirit tab

Tuning - Standard 
X - mutes
P - Pull-off

This is a quite accurate tab of The rising fighting spirit, please feel free to comment. Enjoy!

|======================[Riff 1]========================|
                           2x
|------------------------------------------------------|
|------------------------------------------------------|
|--------------------------------------7---------------|
|--------------------------------------7-7-------------|
|-------------2-0p---------------------5-7-------------|
|-0-0-0-3-2-0-----3-5-3-2--0-0-0-3-2-0---5-------------|

|------------------------------------------------------|
|------------------------------------------------------|
|--------------------------5-5--4-4--------------------|
|--------------------------5-5--4-4--------------------|
|-------------2-0p---------3-3--2-2--------------------|
|-0-0-0-3-2-0------5-3-2-0-----------------------------|


|======================[Riff 2]========================|
  2x          2x        2x      2x       2x       2x
|------------------------------------------------------|
|------------------------------------------------------|
|-9-9-x-x--7-7-x-x--9-9-x-x--7-7-x-x--5-5-x-x--7-7-x-x-|
|-9-9-x-x--7-7-x-x--9-9-x-x--7-7-x-x--5-5-x-x--7-7-x-x-|
|-7-7-x-x--5-5-x-x--7-7-x-x--5-5-x-x--3-3-x-x--5-5-x-x-|
|------------------------------------------------------|

|------------------------------------------------------|
|------------------------------------------------------|
|--------------------------5-3--4-4--------------------|
|--------------------------5-3--4-4--------------------|
|-------------2-0p---------3-3--2-2--------------------|
|-0-0-0-3-2-0-----3-5-3-2------------------------------|


|======================[Riff 3]========================|
    4x         2x                    2x
|------------------------------------------------------|
|------------------------------------------------------|
|-5-x-x-x-x--4-x-x-x-x---------------------------------|
|-5-x-x-x-x--2-x-x-x-x--2-4-5-6---7-x-x-x-x------------|
|-3-x-x-x-x--2-x-x-x-x--2-4-5-6---7-x-x-x-x------------|
|-----------------------0-2-3-4---5-x-x-x-x------------|

      2x           2x
|------------------------------------------------------|
|------------------------------------------------------|
|-4--x-x-x-x--5--x-x-x-x--7--7---7-7-------------------|
|-4--x-x-x-x--5--x-x-x-x--7--7---7-7-------------------|
|-2--x-x-x-x--3--x-x-x-x--5--5---5-5-------------------|
|------------------------------------------------------|


|======================[Riff 4]========================|

|------------------------------------------------------|
|------------------------------------------------------|
|---------------------5-------7---4--------------------|
|-2---4---5-x-x-x-x---5---5---7---4--------------------|
|-2---4---5-x-x-x-x---3---5---5---2--------------------|
|-0---2---3-x-x-x-x-------3----------------------------|

|------------------------------------------------------|
|------------------------------------------------------|
|---------------------5---7---9--9---9-9---------------|
|-2---4---5-x-x-x-x---5---7---9--9---9-9---------------|
|-2---4---5-x-x-x-x---3---5---7--7---7-7---------------|
|-0---2---3-x-x-x-x------------------------------------|
Tap to rate this tab
# A B C D E F G H I J K L M N O P Q R S T U V W X Y Z