Song name
# A B C D E F G H I J K L M N O P Q R S T U V W X Y Z

Toshiro Masuda - Naruto - The Rising Fighting Spirit tab

The Rising Fighting Spirit

Digital Tab by: shidosha (Schermacher, A)
Started by: Douglas, J
Finished by: Schermacher, A
Played by: magodeoz8008
Refer to: http://www.youtube.com/watch?v=Y3exzTiboeM 
E-mail: heavy_arms_pilot@yahoo.com

Tuning: Standard E-A-D-G-B-e

Notes:

| /     Slide up
| \     Slide down
| h     Hammer-on
| p     Pull-off
| C     Cut-off
| b     Bend
| *     Palm mute
| x     Staccato/Hit a little harder and faster, making it shorter.
| S     Sixteenth Notes [One space]
| E     Eighth Notes    [Two spaces]
| Q     Quarter Notes   [Three Spaces]
|--3--| Triplets

Side Notes:

Slides: Each slide is a Sixteenth Note. I didn't put the S over because it
would be more confusing with the 15.

Spaces: 
The spaces means the about of time between the notes. Take the beginning of the first
part after the slide. You see that there is only one dash (-). This means that there is a
sixteenth of a space there. It's hard to explain. If you know what it means good. If you 
need more explained just mail me.

If you have any question/comments/corrections, please E-mail me at
heavy_arms_pilot@yahoo.com

=============================Part 1==============================

          S S S S S S S S S S S S S S S S S S S   S S E  E
e|-4/15\2---------------------------------------------------------|
B|-4/15\2---------------------------------------------------------|
G|-4/15\2---------------------------------------------7-----------|
D|-4/15\2---------------------------------------------7--7--------|
A|-4/15\2---------------3h2p0-------------------3h2p0-5--7--------|
E|-4/15\2-0-0-0-3-0-0-0-------3h2-0-0-0-3-0-0-0----------5--------|

   S S S S S S S S S S S S S E  Q   E  Q S S S S S S S
e|----------------------------------------------------------------|
B|----------------------------------------------------------------|
G|---------------------------5--5---4--4--------------------------|
D|---------------------------5--5---4--4--------------------------|
A|---------------3h2p0-------3--3---2--2--------------------------|
E|-0-0-0-3-0-0-0-------3h2p0--------------------------------------|

   S S S S S S S S S S S S S S S S S S S S S S S E  E
e|----------------------------------------------------------------|
B|----------------------------------------------------------------|
G|-----------------------------------------------7----------------|
D|-----------------------------------------------7--7-------------|
A|---------------------3h2p0---------------3h2p0-5--7-------------|
E|-0-0-0-3-0-0-0-3h2p0-------0-0-0-3-0-0-0----------5-------------|

   S S S S S S S S S S S S S E  Q   E  Q
e|----------------------------------------------------------------|
B|----------------------------------------------------------------|
G|---------------------------5--5---4--4--------------------------|
D|---------------------------5--5---4--4--------------------------|
A|---------------3h2p0-------3--3---2--2--------------------------|
E|-0-0-0-3-0-0-0-------3h2p0--------------------------------------|

=============================Part 2==============================

     |--3--|   |--3--|   |--3--|   |--3--|   |--3--|   |--3--|
          x         x         x         x         x         x
   E  S S S  E  S S S  E  S S S  E  S S S  E  S S S  E  S S S
e|----------------------------------------------------------------|
B|----------------------------------------------------------------|
G|-9--9-9-9--9--9-9-9--7--7-7-7--7--7-7-7--9--9-9-9--9--9-9-9-----|
D|-9--9-9-9--9--9-9-9--7--7-7-7--7--7-7-7--9--9-9-9--9--9-9-9-----|
A|-7--7-7-7--7--7-7-7--5--5-5-5--5--5-5-5--7--7-7-7--7--7-7-7-----|
E|----------------------------------------------------------------|

     |--3--|   |--3--|   |--3--|   |--3--|   |--3--|   |--3--|
          x         x         x         x         x         x
   E  S S S  E  S S S  E  S S S  E  S S S  E  S S S  E  S S S
e|----------------------------------------------------------------|
B|----------------------------------------------------------------|
G|-7--7-7-7--7--7-7-7--5--5-5-5--5--5-5-5--7--7-7-7--7--7-7-7-----|
D|-7--7-7-7--7--7-7-7--5--5-5-5--5--5-5-5--7--7-7-7--7--7-7-7-----|
A|-5--5-5-5--5--5-5-5--3--3-3-3--3--3-3-3--5--5-5-5--5--5-5-5-----|
E|----------------------------------------------------------------|

        S S S S S S S S S S S S S E  Q   E  Q 
e|-15/2-----------------------------------------------------------|x2 from
B|-15/2-----------------------------------------------------------|the
G|-15/2---------------------------5--5---4--4---------------------|beginning
D|-15/2---------------------------5--5---4--4---------------------|of part 2
A|-15/2---------------3h2p0-------3--3---2--2---------------------|
E|-15/2-0-0-0-3-0-0-0-------3h2p0---------------------------------|

=============================Part 3==============================

   S |--3--| S |--3--| S |--3--| S |--3--| S |--3--| S |--3--|
          x         x         x         x         x         x 
e|----------------------------------------------------------------|
B|----------------------------------------------------------------|
G|-5--5-5-5--5--5-5-5--5--5-5-5--5--5-5-5--4--4-4-4--4--4-4-4-----|
D|-5--5-5-5--5--5-5-5--5--5-5-5--5--5-5-5--4--4-4-4--4--4-4-4-----|
A|-3--3-3-3--3--3-3-3--3--3-3-3--3--3-3-3--2--2-2-2--2--2-2-2-----|
E|----------------------------------------------------------------|
   *  * * *  *  * * *  *  * * *  *  * * *

   S |--3--| S |--3--| E  E  E  E S |--3--| S |--3--| S |--3--|
          x         x                    x         x         x 
e|----------------------------------------------------------------|
B|----------------------------------------------------------------|
G|-4--4-4-4--4--4-4-4---------------------------------------------|
D|-4--4-4-4--4--4-4-4-2--4--5--6--7--7-7-7--7--7-7-7--9--9-9-9----|
A|-2--2-2-2--2--2-2-2-2--4--5--6--7--7-7-7--7--7-7-7--9--9-9-9----|
E|--------------------0--2--3--4--5--5-5-5--5--5-5-5--7--7-7-7----|

   S |--3--| S |--3--| S |--3--| S  S  S  S
          x         x         x  x  x  x  x
e|-------------------------------------------15/2-----------------|
B|-------------------------------------------15/2-----------------|
G|-9--9-9-9--5--5-5-5--5--5-5-5--7b-7b-7b-7b-15/2-----------------|
D|-9--9-9-9--5--5-5-5--5--5-5-5--7b-7b-7b-7b-15/2-----------------|
A|-7--7-7-7--3--3-3-3--3--3-3-3--5b-5b-5b-5b-15/2-----------------|
E|-------------------------------------------15/2-----------------|

=============================Part 4==============================

   Q   Q   Q   Q   Q   Q   Q   Q   Q   Q   Q   Q   Q   Q
e|----------------------------------------------------------------|
B|----------------------------------------------------------------|
G|-------------4---5-----------3---------------4---5---7----------|
D|-2---4---5---4---5---5---7---3---2---4---5---4---5---7----------|
A|-2---4---5---2---3---5---7---2---2---4---5---2---3---5----------|
E|-0---2---3-----------3---5-------0---2---3----------------------|

   S  S  S  S
e|-------------15/2-----------------------------------------------|
B|-------------15/2-----------------------------------------------|
G|-9b-9b-9b-9b-15/2-----------------------------------------------|
D|-9b-9b-9b-9b-15/2-----------------------------------------------|
A|-7b-7b-7b-7b-15/2-----------------------------------------------|
E|-------------15/2-----------------------------------------------|

=============================Part 5==============================

   S S S S S S S S S S S S S S S S S S S S S S S E  E
e|----------------------------------------------------------------|
B|----------------------------------------------------------------|
G|-----------------------------------------------7----------------|
D|-----------------------------------------------7--7-------------|
A|---------------------3h2p0---------------3h2p0-5--7-------------|
E|-0-0-0-3-0-0-0-3h2p0-------0-0-0-3-0-0-0----------5-------------|

   S S S S S S S S S S S S S E  Q   E  Q
e|----------------------------------------------------------------|
B|----------------------------------------------------------------|
G|---------------------------5--5---4--4--------------------------|
D|---------------------------5--5---4--4--------------------------|
A|---------------3h2p0-------3--3---2--2--------------------------|
E|-0-0-0-3-0-0-0-------3h2p0--------------------------------------|

   S S S S S S S S S S S S S S S S S S S S S S S E  E
e|----------------------------------------------------------------|
B|----------------------------------------------------------------|
G|-----------------------------------------------7----------------|
D|-----------------------------------------------7--7-------------|
A|---------------------3h2p0---------------3h2p0-5--7-------------|
E|-0-0-0-3-0-0-0-3h2p0-------0-0-0-3-0-0-0----------5-------------|

   S S S S S S S S S S S S S E  Q   E  Q S  S  S  S
                                         x  x  x  x
e|----------------------------------------------------------------|
B|----------------------------------------------------------------|
G|---------------------------5--5---4--4-9b-9b-9b-9b-9/C----------|
D|---------------------------5--5---4--4-9b-9b-9b-9b-9/C----------|
A|---------------3h2p0-------3--3---2--2-7b-7b-7b-7b-7/C----------|
E|-0-0-0-3-0-0-0-------3h2p0--------------------------------------|

===============================================================
Tap to rate this tab
 
# A B C D E F G H I J K L M N O P Q R S T U V W X Y Z