Song name
# A B C D E F G H I J K L M N O P Q R S T U V W X Y Z

Toshiro Masuda - Sadness Sorrow tab

 This is my first tab! Actually there are many good tabs of this song,
but this tab is to play the guitar part of the song only, almost exactly
as the original. Enjoy!

 (2)	play that note for a better sound
 H	Half
 Q	Quarter
 E	8th


   E E E Q.    Q    E E E Q.    Q
e |----3-2---------|----3-2---------|
B |------------3---|------------0---|
G |--0-------------|--0-------------|
D |2---------------|2---------------|
A |----------------|----------------|
E |----------------|----------------|

           H        E E E Q   E E E  E E E E E E E E   E E Q   E E Q
e |--------0-------|----------------|------3-2-------|-------------2--|
B |--------3-------|------1---------|----3-----3-----|-----0------(3)-|
G |--------4-------|----0-----0---0-|--2---------2---|----(0)----2(2)-|
D |--------2-------|--2---------2---|0-------------0-|---0(0)--0------|
A |----------------|3---------------|----------------|----------------|
E |----------------|----------------|----------------|-3--------------|

   Q.    E H        E E E Q   E Q    E E E E H
e |--------0-------|----------------|----3---2-------|
B |--------3-------|------1---------|----------------|
G |--------4-------|----0-------0---|--2---2---------|
D |--------2-------|--2-------2-----|0---------------|
A |------2---------|3---------------|----------------|
E |0---------------|----------------|----------------|

   E E E Q.    Q    E E E Q.    Q
e |----3-2---------|----3-2---------|
B |------------3---|------------0---|
G |--0-------------|--0-------------|
D |2---------------|2---------------|
A |----------------|----------------|
E |----------------|----------------|

   E E E E E E E E  E E E E E E E E  E E E E E E E E  E E E E E E E E
e |----------------|----2---0-------|----------------|------------2---|
B |----1---------3-|------0-----0---|----1---------3-|----0---------3-|
G |------0-----2---|--0-------0---0-|------0-----2---|------0---2-----|
D |--2-------4-----|2---------------|--2-------4-----|--0-----0-------|
A |3-------2-------|----------------|3-------2-------|----------------|
E |----------------|----------------|----------------|3---------------|

   E E E E E E E E  E E E E E E E E  E E E E E E E E
e |----------------|----2---0-------|----------------|
B |----1---------3-|------0-----0---|----1---------3-|
G |------0-----2---|----------0---0-|------0-----2---|
D |--2-------4-----|--0-------------|--2-------4-----|
A |3-------2-------|2---------------|3-------2-------|
E |----------------|----------------|----------------|

   E E Q   E E Q    E E Q   E E Q    E E Q   E E Q    E E Q   E E Q
e |----0-------0---|----0-------0---|----0-------0---|----0-------0---|
B |--1-------1-----|--0-------0-----|--1-------1-----|--0-------0-----|
G |----------------|----------------|----------------|----------------|
D |----------------|2-------2-------|----------------|2-------2-------|
A |0-------0-------|----------------|0-------0-------|----------------|
E |----------------|----------------|----------------|----------------|

   E E Q   E E Q    E E Q   E E Q
e |----0-------0---|----0-------0---|
B |--1-------1-----|--0-------0-----|
G |----------------|----------------|
D |----------------|----------------|
A |0-------0-------|2-------2-------|
E |----------------|----------------|

Tap to rate this tab
 
# A B C D E F G H I J K L M N O P Q R S T U V W X Y Z