Song name
# A B C D E F G H I J K L M N O P Q R S T U V W X Y Z

Toshiro Masuda - Sadness And Sorrow tab

Sadness and Sorrow
Toshiro Masuda
Naruto

Tabbed by Roani52

Tuning: Standard (EADGBe)

Sounds pretty good to me. This is my first tab, but I'm pretty sure this one's correct.
Listen to the original, and you'll probably be able to figure out the timing.
I think this melody is quite beatiful. It sounds great if you have someone playing the 
part on the piano.
Enjoy!

Flute
|-------------------|--5----------------|--------------5----|
|--7-5---------5-8--|----5--------------|--7/8-----7-8------|
|------4------------|-------------------|----------------7--|
|-------------------|-------------------|-------------------|
|-------------------|-------------------|-------------------|
|-------------------|-------------------|-------------------|

|--7-5--------------|-------------------|--5----------------|
|-------------------|--7-5---------5-8--|----5--------------|
|-------------------|------4------------|-------------------|
|-------------------|-------------------|-------------------|
|-------------------|-------------------|-------------------|
|-------------------|-------------------|-------------------|
                                        Piano
|--------------5----|-------------------|-------------------|
|--8-------7-8------|--5----------------|------------5-7-8--|
|----------------7--|-------------------|-------------------|
|-------------------|-------------------|-------------------|
|-------------------|-------------------|-------------------|
|-------------------|-------------------|-------------------|

|--5---7------------|-------------------|------5-------7----|
|----------5-8-7----|--5----------------|--8-------8-7------|
|-------------------|-------------------|-------------------|
|-------------------|-------------------|-------------------|
|-------------------|-------------------|-------------------|
|-------------------|-------------------|-------------------|

|--7-------5--------|--5---7------------|-------------------|
|-------------------|----------5-8-7----|--5----------------|
|-------------------|-------------------|-------------------|
|-------------------|-------------------|-------------------|
|-------------------|-------------------|-------------------|
|-------------------|-------------------|-------------------|

|------5------------|-------------------|
|--8-------8-7------|--5----------------|
|--------------4-4--|-------------------|
|-------------------|-------------------|
|-------------------|-------------------|
|-------------------|-------------------|
Tap to rate this tab
 
# A B C D E F G H I J K L M N O P Q R S T U V W X Y Z