Song name
# A B C D E F G H I J K L M N O P Q R S T U V W X Y Z

Toshiro Masuda - Raising Fighting Spirit tab

Artist: Toshiro Masuda       Song:The Raising Fighting Spirit       
Album: Naruto Soundtrack       Tabbed by: Washburnw114

Standard Tuning (E A D G B e)

h = Hammer on
p = Pull off
pm = Palm muting
~  = Vibrato

INTRO

After drums...
Distorted Guitar
|--------------------------------------------------|
|--------------------------------------------------|
|-------------------------------------------7------|
|-------------------------------------------7-7----|
|------------------------0h2p0--------------5-7----|
|-12/----0-0-0-0-0-3-2-0-------3-0-0-0-0-0----5----|
                                                          X2
|--------------------------------------------------|
|--------------------------------------------------|
|----------------------------5-5-----4-4-----------|
|----------------------------5-5-----4-4-----------|
|-----------------0h2p0------3-3-----2-2-----------|
|-0-0-0-0-0-3-2-0-------3-0------pm0---------------|


VERSE

Then plays the Flute
|-----------------------------5-----0-8---8-10-8-7---------------9~~--|
|---5---5-7-8-7------5--5-7-8-------------------------10-8-7-8-10-----|
|----------------7----------------------------------------------------|
|---------------------------------------------------------------------|
|---------------------------------------------------------------------|
|---------------------------------------------------------------------|

Along with Guitar
|----------------------------------------|
|----------------------------------------|
|---9--------9--------7--------7---------|
|---9--------9--------7--------7---------|  X2 
|---7--7-7-7-7--7-7-7-5--5-5-5-5--5-5-5--|
|----------------------------------------|
      |-PM-|    |-PM-|   |-PM-|   |-PM-|

AND
|---------------------------------------|
|---------------------------------------|
|---5--------5--------7--------7--------|
|---5--------5--------7--------7--------|    THEN PLAY 2ND PART OF THE INTRO
|---3--3-3-3-3--3-3-3-5--5-5-5-5--------|
|---------------------------------------|
       |-PM-|   |-PM-|   |-PM-|



VERSE
but change the flute for
|----------------------------7p5-----0-8---8-10-12-10---8p7----10-9----|
|---5---5-7-8-7------5--5-7-8-------------------------------10---------|
|----------------7-----------------------------------------------------|
|----------------------------------------------------------------------|
|----------------------------------------------------------------------|
|----------------------------------------------------------------------|

That's as far as I played by ear. Hope this helps, I'm pretty sure it's near fullly correct.
Tap to rate this tab
# A B C D E F G H I J K L M N O P Q R S T U V W X Y Z