Song name
# A B C D E F G H I J K L M N O P Q R S T U V W X Y Z

Toshiro Masuda - Hinata Vs Neji tab

Help us improve GuitareTab! Take a short survey!
by Gabriel Olteanu

E |-------------------------------------------------------------------| 
B |----------15--15---13-1110----------------------------------------| 
G |------12---------------------10--12-----------------10-------------|   
D |--12----------------------------------12-10-12--10------7----------| 
A |-------------------------------------------------------------------| 
E |-------------------------------------------------------------------|

E |-------------------------------------------------------------------| 
B |----------15--15---13-1110----------------------------------------| 
G |------12---------------------10--12---14---15----------------------|   
D |--12---------------------------------------------------------------| 
A |-------------------------------------------------------------------| 
E |-------------------------------------------------------------------|

E |-------------------------------------------------------------------| 
B |----------15--15---13-1110----------------------------------------| 
G |------12---------------------10--12-----------------10-------------|   
D |--12----------------------------------12-10-12--10------7----------| 
A |-------------------------------------------------------------------| 
E |-------------------------------------------------------------------|

E |-------------------------------------------------------------------| 
B |----------15--15---13-1110----------------------------------------| 
G |------12---------------------10--12---14--1012--------------------|  
D |--12---------------------------------------------------------------| 
A |-------------------------------------------------------------------| 
E |-------------------------------------------------------------------|
Flute
E |-------------------------------------------------------------------| 
B |----------15--15---13-1110----------------------------------------| 
G |------12---------------------10--12-----------------10-------------|   
D |--12----------------------------------12-10-12--10------7----------| 
A |-------------------------------------------------------------------| 
E |-------------------------------------------------------------------|

E |-------------------------------------------------------------------| 
B |----------15--15---13-1110----------------------------------------| 
G |------12---------------------10--12---14--10-12-------------------|   
D |--12---------------------------------------------------------------| 
A |-------------------------------------------------------------------| 
E |-------------------------------------------------------------------|
Flte
E |-------------------------------------------------------------------| 
B |----------15--15---13-1110----------------------------------------| 
G |------12---------------------10--12-----------------10-------------|   
D |--12----------------------------------12-10-12--10------7----------| 
A |-------------------------------------------------------------------| 
E |-------------------------------------------------------------------|

E |-------------------------------------------------------------------| 
B |----------15--15---13-1110----------------------------------------| 
G |------12---------------------10--12---14---15----------------------|   
D |--12---------------------------------------------------------------| 
A |-------------------------------------------------------------------| 
E |-------------------------------------------------------------------|
Related for Hinata Vs Neji tab