Song name
# A B C D E F G H I J K L M N O P Q R S T U V W X Y Z

Toshiro Masuda - Hinata Vs Neji tab

by Gabriel Olteanu

E |-------------------------------------------------------------------| 
B |----------15--15---13-11—10----------------------------------------| 
G |------12---------------------10--12-----------------10-------------|   
D |--12----------------------------------12-10-12--10------7----------| 
A |-------------------------------------------------------------------| 
E |-------------------------------------------------------------------|

E |-------------------------------------------------------------------| 
B |----------15--15---13-11—10----------------------------------------| 
G |------12---------------------10--12---14---15----------------------|   
D |--12---------------------------------------------------------------| 
A |-------------------------------------------------------------------| 
E |-------------------------------------------------------------------|

E |-------------------------------------------------------------------| 
B |----------15--15---13-11—10----------------------------------------| 
G |------12---------------------10--12-----------------10-------------|   
D |--12----------------------------------12-10-12--10------7----------| 
A |-------------------------------------------------------------------| 
E |-------------------------------------------------------------------|

E |-------------------------------------------------------------------| 
B |----------15--15---13-11—10----------------------------------------| 
G |------12---------------------10--12---14--10—12--------------------|  
D |--12---------------------------------------------------------------| 
A |-------------------------------------------------------------------| 
E |-------------------------------------------------------------------|
Flute
E |-------------------------------------------------------------------| 
B |----------15--15---13-11—10----------------------------------------| 
G |------12---------------------10--12-----------------10-------------|   
D |--12----------------------------------12-10-12--10------7----------| 
A |-------------------------------------------------------------------| 
E |-------------------------------------------------------------------|

E |-------------------------------------------------------------------| 
B |----------15--15---13-11—10----------------------------------------| 
G |------12---------------------10--12---14--10—-12-------------------|   
D |--12---------------------------------------------------------------| 
A |-------------------------------------------------------------------| 
E |-------------------------------------------------------------------|
Flϋte
E |-------------------------------------------------------------------| 
B |----------15--15---13-11—10----------------------------------------| 
G |------12---------------------10--12-----------------10-------------|   
D |--12----------------------------------12-10-12--10------7----------| 
A |-------------------------------------------------------------------| 
E |-------------------------------------------------------------------|

E |-------------------------------------------------------------------| 
B |----------15--15---13-11—10----------------------------------------| 
G |------12---------------------10--12---14---15----------------------|   
D |--12---------------------------------------------------------------| 
A |-------------------------------------------------------------------| 
E |-------------------------------------------------------------------|
Tap to rate this tab
 
# A B C D E F G H I J K L M N O P Q R S T U V W X Y Z