Guitaretab - guitar tabs
Song name
# A B C D E F G H I J K L M N O P Q R S T U V W X Y Z

Toshiro Masuda - Sadness And Sorrow tab

Sadness And Sorrow
By Toshiro Masuda

This is the solo from Sadness and Sorrow that starts approximately
at 1:35. Although it is most likely played with a Guqin, it still
sounds decent with a guitar.

E---12-12-12-12-12-12-12-12-12-12-12-12-12-12-12-12-12-12-12-12--|
B----------------------------------------------------------------|
G----------------------------------------------------------------|
D----------------------------------------------------------------|
A----------------------------------------------------------------|
E----------------------------------------------------------------|

E---12-12-12-12-12-12-12-12-12-12-12-12-10-10-10-10-10-10-10-10--|
B----------------------------------------------------------------|
G----------------------------------------------------------------|
D----------------------------------------------------------------|
A----------------------------------------------------------------|
E----------------------------------------------------------------|
[ Tab from: http://www.guitaretab.com/t/toshiro-masuda/83168.html ]
E---10-10-10-10-10-10-10-10------------10--12---10--12--10-------|
B---------------------------10~----10-10--------------------12b--|
G----------------------------------------------------------------|
D----------------------------------------------------------------|
A----------------------------------------------------------------|
E----------------------------------------------------------------|

E----------------------------------------------------------------|
B---/10--8-----------------------8~-------8-----8/10--12--10~----|
G-----------9--7-----7-----7--9--------9-----9-------------------|
D-----------------9-----9----------------------------------------|
A----------------------------------------------------------------|
E----------------------------------------------------------------|

E----------------------------------------------------------------|
B------8-----------------------------8---------------------------|
G---9-----9--7--9~-------------7--9-----9~----7--9b---9--9--7-7--|
D---------------------5--7--9------------------------------------|
A----------------------------------------------------------------|
E----------------------------------------------------------------|
Related for Sadness And Sorrow tab
×
Sadness And Sorrow