Song name
# A B C D E F G H I J K L M N O P Q R S T U V W X Y Z

Totalitar - Doda Doda For Inre Frid tab

-----------------------------------------------------------------
Doda, Doda For Inre Frid - Totalitar
-----------------------------------------------------------------
Tabbed by: Dillon
Email: Angelic_oioi_upstart@yahoo.com

Tuning:Standard

Verse:
e|---------------------------------------------------------------|
B|---------------------------------------------------------------|
G|---------4-----222---------------------------------------------|
D|-666-3-2-4-555-222---------------------------------------------|
A|-666-3-2-2-555-000---------------------------------------------|
E|-444-2-0---333-------------------------------------------------|

Chorus:
e|---------------------------------------------------------------|
B|---------------------------------------------------------------|
G|------76------689----------------------------------------------|
D|-8888-76-8888-689----------------------------------------------|
A|-8888-54-8888-467----------------------------------------------|
E|-6666----6666--------------------------------------------------|

| / slide up
| \ slide down
| h hammer-on
| p pull-off
| ~ vibrato
| + harmonic
| x Mute note

#----------------------------------PLEASE NOTE---------------------------------#
#This file is the author's own work and represents their interpretation of the #
#song. You may only use this file for private study, scholarship, or research. #
#------------------------------------------------------------------------------#
Tap to rate this tab
 
# A B C D E F G H I J K L M N O P Q R S T U V W X Y Z