Song name
# A B C D E F G H I J K L M N O P Q R S T U V W X Y Z

Totalitar - Hur Orkar Vi tab

verse:
e|------------------------------------------------------------------------|
B|------------------------------------------------------------------------|
G|-----7---44444----------------------------------------------------------|
D|-444-7-6-44444----------------------------------------------------------|
A|-444-5-6-22222----------------------------------------------------------|
E|-222---4----------------------------------------------------------------|

chorus:
e|------------------------------------------------------------------------|
B|------------------------------------------------------------------------|
G|-666-7---44444----------------------------------------------------------|
D|-666-7-6-44444----------------------------------------------------------|
A|-444-5-6-22222----------------------------------------------------------|
E|-------4----------------------------------------------------------------|

verse(6x)
chorus(2x)
verse(6x)
chorus(2x)
verse(7x)
chorus(2x)

questions? crust_and_anguish_life@yahoo.com
Tap to rate this tab
# A B C D E F G H I J K L M N O P Q R S T U V W X Y Z