Song name
# A B C D E F G H I J K L M N O P Q R S T U V W X Y Z

Toten Hosen - Bis Zum Bitteren Ende tab

Bis zum bitteren Ende 


[INTRO]

E---------------------------------------------------------------------
H---------------------------------------------------------------------
G---------------------------------------------------------------------
D--------------------------5---5--3--2--3--2---5---5--3--2--3--2---2--
A-------2--3----2-3-3-3----------------------3-------------------3----
E--3--5---------------------------------------------------------------

E---------------------------------------------------------------------
H---------------------------------------------------------------------
G---------------------------------------------------------------------
D------------------5---5--3--2--3--2---5---5--3--2--3--2---2----------
A--3----2-3-3-3--------------------------3---------------3---3--------
E---------------------------------------------------------------------


[Strophe]
 C
Und die Jahren ziehen ins Land
         F                  G
und wir trinken immer noch ohne Verstand
      C
denn eins das wissen wir gans genau
      F               G
Ohne Alk da w?re der Alltag zu grau.
 C
Korn, Bier, Schnaps und Wein
         F             G
und wir hoeren unsere Leber schreien
     C
und wenn einmal de Abschied naht
       F                            G
sagen alle das hab ich schon immer geahnt.


[BRIDGE]

E---------------------------------------------------------------:|
H---------------------------------------------------------------:|
G---------------------------------------------------------------:|
D-------3--2---------3--2------------3--2-----------------------:|
A--3--3------5--3--3------5--2--3--3------5--3--5--5--5-5-5-5---:|
E---------------------------------------------------------------:|

E--8-8-8-8-8-8-8-8-...
H--8-8-8-8-8-8-8-8-...
G---------------------
D---------------------
A---------------------
E---------------------


[Strophe]


[Bridge]

Immer geahnt, immer geahnt ....

E-------------------------------:|
H--13----12--13--13----15--13---:|
G-----12------------12----------:|  (???)
D-------------------------------:|
A-------------------------------:|
E-------------------------------:|

immer geahnt, immer geahnt ....


[Ending]

E--------------------------------------------------------
H--------------------------------------------------------
G--5-5-5-5-5-/8-8-\7-7-7-/8-/10-10-\8-\7-/8-/10-10-/12---
D--------------------------------------------------------
A--------------------------------------------------------
E--------------------------------------------------------

Tap to rate this tab
 
# A B C D E F G H I J K L M N O P Q R S T U V W X Y Z