Song name
# A B C D E F G H I J K L M N O P Q R S T U V W X Y Z

Toto - Falling In Between tab

***************************
TOTO                      *
Falling In Between        *
***************************

Guitar tuning: Drop D
Notes: The fill is a tricky 16th notes pentatonic lick. Requires some weeks of serious 
if you wanna play it right and fast.


RIFF 1
E ------------------------------------------------------------------------|
B ------------------------------------------------------------------------|
G ------------------------------------------------------------------------|
D -----0-0-0--0-0--0-0-0--0-0---------------------------------------------|
A -----0-0-0--0-0--0-0-0--0-0---------------------------------------------|
D -----0-0-0--0-0--0-0-0--0-0---------------------------------------------|

FILL 1
E ------------------------------------------------------------------------|
B ------------8-7-5---5---------------------------------------------------|
G ------------------7---7-5-7-----5-7-5-----------------------------------|
D ----------------------------5-7-----------------------------------------|
A ------------------------------------------------------------------------|
D ------------------------------------------------------------------------|

RIFF 2
E ------------------------------------------------------------------------|
B ------------------------------------------------------------------------|
G -------------0-5-------------------------0-5----------------------------|
D ---------0-4------5--5-3-0-3-5-------0-4------5--5-3-0-7-5--------------|
A -----0-3----------5--5-3-0-3-5---0-3----------5--5-3-0-7-5--------------|
D ------------------5--5-3-0-3-5----------------5--5-3-0-7-5--------------|

Please email me at: 160299@gmail.com if you're looking for the chords or the rest of the song

(Dario Inversi)
Tap to rate this tab
# A B C D E F G H I J K L M N O P Q R S T U V W X Y Z