Song name
# A B C D E F G H I J K L M N O P Q R S T U V W X Y Z

Toto - Africa tab

e|--11-9-7-9-7---7-------------------------------------|
B|-------------9---9-7-9-7---7-------------------------|
G|-------------------------8---8-6-8-6---6--------6----|
D|-------------------------------------9---9-6-9-------|
A|---------------------------------------------------9-|
E|-----------------------------------------------------|

e|-----------------------------------------------------|
B|-----------------------------------------------------|
G|--9-8-6----------------------------------------------|
D|--------9-8-6-----9--6-----------9--6----------------|
A|--------------9---------9-7-6---------7-6------------|
E|-------------------------------9----------9----------|

e|----------------------------------|
B|----------------------------------|
G|------------------------7h8-5h6-4-|
D|--------6---6-8-6-8-9p8-----------|
A|--9-7-9---9-----------------------|
E|----------------------------------|
Tap to rate this tab
 
# A B C D E F G H I J K L M N O P Q R S T U V W X Y Z