Song name
# A B C D E F G H I J K L M N O P Q R S T U V W X Y Z

Toto - Africa tab

4 Beats/Bar = |--------------------------------|


e|----11-9----9-----------------------------|----------------------------|
B|---------12---12-9-12-9----9--------------|----------------------------|
G|------------------------11---11-8-11-8----|-8--------------------------|
D|---------------------------------------11-|---11-9-11-9----9----11-----|
A|------------------------------------------|-------------11---------11--|
E|------------------------------------------|----------------------------|


e|-----------------------------------|-----------------------------------|
B|-------5-4-------------------------|-----------------------------------|
G|------6----6-4----------4----------|------------4----------------------|
D|-----7---------7-6-4---------7--6--|--4------------4-------------------|
A|----7------------------------------|-----7--6---------7-6-4------------|
E|-----------------------------------|-----------------------------------|


e|---------------------------------11--9-|-7-----------------------------|
B|---------------------------9-----12--9-|-7-----------------------------|
G|------------8----8-11-8-11---11--------|-------------------------------|
D|----11-9-11---11-----------------------|-------------------------------|
A|---------------------------------------|-------------------------------|
E|---------------------------------------|-------------------------------|
Tap to rate this tab
 
# A B C D E F G H I J K L M N O P Q R S T U V W X Y Z