Toto - I Wont Hold You Back tab

I played note by note, It can't be wrong :). This is the first song that I figured out by ear.



Eb             Bb              Gm
If I had another chance tonight

Eb             Bb                                 Gm
I'd try to tell you that the things we had were right

Eb               Bb                   G#
Time can erase the love we shared

A#                       G#                Fm                 C
But it gives me time to realize just how much you cared

Eb             Bb              Gm
Now you're gone, I'm really not the same

Eb             Bb              Gm
I guess I held myself to blame

Eb               Bb                   G#
Time can erase the things we said

Bb                       Ab                Fm                 C
But it gives me time to realize that you're the one who's sad


Chorus:

Eb                  Ab                 Bb
You know I won't hold you back now

Piano fill:
e----------------------------------------------------|
B----------------------------------------------------|
G----------------------------------------------------|
D---8-8-8--6-6-6--5-5-5------------------------------|
A--------------------------8-8-8--6-6-6--------------|
E----------------------------------------------------|


Eb                  Ab                 Bb
The love we had just can't be found

Fill:
e----------------------------------------------------|
B----------------------------------------------------|
G----------------------------------------------------|
D-----5--6----8---10--12-----------------------------|
A-----5--6----8---10--12-----------------------------|
E-----3--4----6---8---10-----------------------------|


Eb                  Ab                 Bb
You know I can't hold you back now





Eb             Bb              Gm
Now that I'm alone it gives me time

Eb             Bb              Gm
To think about the years that you were mine
Eb               Bb                   G#
Time can erase the love we shared
Bb                       Ab                Fm                 C
But it gives me time to realize just how much you cared


Chorus


Solo:

e----------------------------------------------------|
B----------------------------------------------------|
G----------------------------------------------------|
D---12~---13---10------12-12~-13-10------------------|
A----------------------------------------------------|
E----------------------------------------------------|


e----------------------------------------------------|
B----------------------------------------------------|
G----------------------------------------------------|
D-----10-10-10----8-8--6-6--5-5---3/5-5~-------------|
A----------------------------------------------------|
E----------------------------------------------------|


e-----------------------------------------------------|
B-----------------------------------------------------|
G-----------------------------------------------------|
D---12~---13---10------12-12~-13-10-------------------|
A-----------------------------------------------------|
E-----------------------------------------------------|

e-------------------------------------------11b(15)-|
B---------------------------------------------------|
G---------------------------------------------------|
D-----10-10-10----8-8--6-6--5-5---3/5-5~------------|
A---------------------------------------------------|
E---------------------------------------------------|

Chorus until it fades
Tap to rate this tab
 
# A B C D E F G H I J K L M N O P Q R S T U V W X Y Z