Song name
# A B C D E F G H I J K L M N O P Q R S T U V W X Y Z

Toto - Rockmaker chords

Highlighted       Show chord diagrams
Intro: Eb  F  Eb  F  -  Bb(x2)  F(x2)  Bb(x2)  Eb  Bb  Eb

Bb(x2)                                      F(x2)
Don't know quite what to say
Bb(x2)                          Eb  Bb  Eb
Haven't seen you in seven ages
Bb(x2)                              F(x2)
Can you tell that it's me
Bb(x2)                          Eb(x2)       Bb    Cm
Or is my picture on torn out pages?

                 Eb(x4)        Gm(x4)
And you think it's real
                 F F                      C(x4)   Gm Eb
But it's just another future deal
            Eb(x4)                Gm(x4)
And you know you're right
                    F  F                    C(x4)   Gm  Eb
'Cause you've waited for it all night
                  Eb(x4)          Gm(x4)
Then you find yourself
              F  F                Bbsus
Sitting on a little shelf

(use verse chords)
E-----------------------------------------|
B-----------------------------6--8--11----|
G--5--h7--5--h7--p5----5---7--------------|
D-------------------8---------------------|
A-----------------------------------------|
E-----------------------------------------|

E----8--10-h11-p10--11--10--10--8------8------|
B----------------------------------11-----11--|
G---------------------------------------------|
D---------------------------------------------|
A---------------------------------------------|
E---------------------------------------------|


Bb(x2)                                      F(x2)
Don't know quite what to do
Bb(x2)                          Eb  Bb  Eb
I've been acting my life in phases
Bb(x2)           F(x2)
Is it really true
Bb(x2)                               Eb(x2)         Bb    Cm
That they're keeping us locked in cages?



                 Eb(x4)        Gm(x4)
And you think it's real
                 F F                      C(x4)   Gm Eb
But it's just another future deal
            Eb(x4)                Gm(x4)
And you know you're right
                    F  F                    C(x4)   Gm  Eb
'Cause you've waited for it all night
                  Eb(x4)          Gm(x4)
Then you find yourself
              F  F                Bbsus
Sitting on a little shelf

Rockmaker
(use verse chords)
E---------------------------------------------------------------|
B----------------6--8-------------------------------------------|
G---------5--7---------5--h7--p5------7--7--7--5-7--8--8--7--5--|
D------8---------------------------8----------------------------|
A----8----------------------------------------------------------|
E---------------------------------------------------------------|

E------------------------------------------------------|
B---------------6--8-----------------------------------|
G---------5--7---------5--h7--p5-----7--7--7--5--7--8--|
D-----8-------------------------8----------------------|
A--8---------------------------------------------------|
E------------------------------------------------------|

E------------------------------------------------------------|
B------------------------------------------------------------|
G------8--7--8--7--5-----------------------------------------|
D----------------------8-------------------------------------|
A---------------------------8--------------------------------|
E------------------------------------------------------------|


                 Eb(x4)        Gm(x4)
And you think it's real
                 F F                      C(x4)   Gm Eb
But it's just another future deal
            Eb(x4)                Gm(x4)
And you know you're right
                    F  F                    C(x4)   Gm  Eb
'Cause you've waited for it all night
                  Eb(x4)          Gm(x4)
Then you find yourself
              F  F                Bbsus
Sitting on a little shelf

E---------------------------------------------------------------|
B---------------------------------------------6--/s-13--15--13--|
G----7--5--7--5-----5--7--5--7----------------------------------|
D----------------8---------------8--T5-t-8----------------------|
A---------------------------------------------------------------|
E---------------------------------------------------------------|

E---------------------------------------------|
B-------13--15--13--16--15--13----------------|
G--15---------------------------15------------|
D---------------------------------------------|
A---------------------------------------------|
E---------------------------------------------|

E------------------15--15-------15--18--15--18--18--18--15--|
B--------------13---------18--------------------------------|
G----12--15-------------------------------------------------|
D-----------------------------------------------------------|
A-----------------------------------------------------------|
E-----------------------------------------------------------|

E--18--18--15--18--15--------------------------------|
B-----------------------18--20-----18--15--16--15----|
G----------------------------------------------------|
D----------------------------------------------------|
A----------------------------------------------------|
E----------------------------------------------------|

E----------------------------------------------|
B----13--15------------------------------------|
G------------15-----------------17--h19--po17--|
D------------------------17--20----------------|
A----------------------------------------------|
E----------------------------------------------|

E------------------------------20----------------------|
B--17--19--20----17--h19--h20------20--18--17--18--17--|
G------------------------------------------------------|
D------------------------------------------------------|
A------------------------------------------------------|
E------------------------------------------------------|

E------------------------------------------------|
B------------------------------------------------|
G----17--19--17----------------------------------|
D----------------17--20--17--------------17--20--|
A----------------------------20--17--20----------|
E------------------------------------------------|

E-------------------------------|
B-------------------------------|
G--19--19--19--19--19--19--19---|
D--20--20--20--20--20--20--20---|
A-------------------------------|
E-------------------------------|

E-------------------------------18--20--22--|
B---------------------18--20----------------|
G------------17--19-------------------------|
D--17--20-----------------------------------|
A-------------------------------------------|
E-------------------------------------------|

E--22--20--22--18--|
B------------------|
G------------------|
D------------------|
A------------------|
E------------------|

End on Cm
Tap to rate this tab
 
# A B C D E F G H I J K L M N O P Q R S T U V W X Y Z