Song name
# A B C D E F G H I J K L M N O P Q R S T U V W X Y Z

Toto - Taint Your World tab

intro
/--------------------------------------------------------|
/--------------------------------------------------------|
/------------------5-------------------------------------|
/-----0-50-7--0-4-5----0-4-5-7--------------------------|
/-------------------0-3--------0------------------------|
/--------------------------------------------------------|

/--------------------------------------------------------|
/--------------------------------------------------------|
/------------------5-------------------------------------|
/-----0-5-0-7--0-4-5-------------------------------------|
/--------------------0-2-3-2h3p2---0---------------------|
/--------------------------------3-----------------------|
a exelent riff!the dificulty is in the speed!
Tap to rate this tab
 
# A B C D E F G H I J K L M N O P Q R S T U V W X Y Z