Song name
# A B C D E F G H I J K L M N O P Q R S T U V W X Y Z

Toto - Road Goes On tab

toto -  the road goes on (some kind of acoustic version)
tabbed by matt

tune E down to d (dropped-d)

capo on second fret (tabs relative to fret)

INTRO:


     dsus2      dsus2/C      dsus2/B

e|-------0--------------------------0---------|
b|------3--3--------3----------2------3-------|
g|-----2-----------2--3----------3-----0------|
d|---0------------0-----------0---0--0---0----|
A|---0---------0h3---------0h2----------------|
D|--------------------------------------------|


    dsus2      dsus4/C      dsus4/b

e|------0-2-3-------3----------3----3---------|
b|-------------------3-----------3----3-------|
g|-----2----------2---2-------0---0----0------|
d|---0-------------------------------0---0----|
A|---0---------0h3---------0h2----------------|
D|--------------------------------------------|

FIRST VERSE: (play twice)


     dsus2      dsus2/C      dsus2/B

e|-------0--------------------------0---------|
b|------3--3--------3----------2------3-------|
g|-----2-----------2--3----------3-----0------|
d|---0------------0-----------0---0--0---0----|
A|---0---------0h3---------0h2----------------|
D|--------------------------------------------|


    dsus2      dsus4/C      dsus4/b                  FILL: (only first time)

e|------0-2-3-------3----------3----3---------|     e|-------------------|
b|-------------------3-----------3----3-------|     b|-------------------|
g|-----2----------2---2-------0---0----0------|     g|-------------------|
d|---0-------------------------------0---0----|     d|---0-0---2p0-------|
A|---0---------0h3---------0h2----------------|     A|-------------3s5---|
D|--------------------------------------------|     D|-------------------|


SECOND VERSE:


   C            Cadd11    B

e|---------------------------1-------|
b|-------1---------------3-----3-----|
g|----0---0--0---0----3---3-----3----|
d|----2-2--2-3---2----3-3--3-----3---|
A|----3------3-3-3----1-------1------|
D|-----------------------------------|


   C            Cadd11    B

e|-------------------------------1---|
b|-------1---------------3------3----|
g|----0---0--0---0----3---3----3-----|
d|----2-2--2-3---2----3-3--3--3------|
A|----3------3-3-3----1------1-------|
D|-----------------------------------|

FIRST VERSE (play twice)

SECOND VERSE/BREAK:


   C     Cadd11  C    B

e|---------------------------1-------|
b|-------1---------------3-----3-----|
g|----0---0--0---0----3---3-----3----|
d|----2-2--2-3---2----3-3--3-----3---|
A|----3------3-3-3----1-------1------|
D|-----------------------------------|

   C     Cadd11  C              G#m         A#m

e|--------------------|    e|-------3-------5-5-5-5---|
b|-------1------------|    b|---------3-----5-5-5-5---|
g|----0---0--0---0----|    g|---------------x-x-x-x---|
d|----2-2--2-3---2----|    d|---5-5-----5---7-7-7-7---|
A|----3------3-3-3----|    A|---5-5-----5---7-7-7-7---|
D|--------------------|    D|---5-5-----5---7-7-7-7---|

BRIDGE:


   B              D#    C#            A#m

e|---1--1-x-1-1----5----3--3-x-3-3----5---|
b|---3--3-x-3-3----7----5--5-x-5-5----5---|
g|---3--3-x-3-3----7----5--5-x-5-5----x---|
d|---3--3-x-3-3----7----5--5-x-5-5----7---|
A|---1--1-x-1-1----5----3--3-x-3-3----7---|
D|------------------------------------7---|


   B              D#    C#            A#m

e|---1--1-x-1-1----5----3--3-3-3--3----5-5---|
b|---3--3-x-3-3----7----5--5-5-5--5----5-5---|
g|---3--3-x-3-3----7----5--5-5-5--5----x-x---|
d|---3--3-x-3-3----7----5--5-5-5--5----7-7---|
A|---1--1-x-1-1----5----3--3-3-3--3----7-7---|
D|-------------------------------------7-7---|


   B              D#    C#

e|---1--1-x-1-1----5----3--3-x-3-3---|
b|---3--3-x-3-3----7----5--5-x-5-5---|
g|---3--3-x-3-3----7----5--5-x-5-5---|
d|---3--3-x-3-3----7----5--5-x-5-5---|
A|---1--1-x-1-1----5----3--3-x-3-3---|
D|-----------------------------------|

REFRAIN:

          G#m           A#m           B             C             dsus2

e|--------3--3-3-x-x----5--5-5-x-x----1--1-1-x-x----0--0-0-x-x----0---|
b|--------3--3-3-x-x----5--5-5-x-x----3--3-3-x-x----1--1-1-x-x----3---|
g|--------x--x-x-x-x----x--x-x-x-x----3--3-3-x-x----0--0-0-x-x----2---|
d|--------5--5-5-x-x----7--7-7-x-x----3--3-3-x-x----2--2-2-x-x----0---|
A|--------5--5-5-x-x----7--7-7-x-x----1--1-1-x-x----3--3-3-x-x--------|
D|---5h7--5--5-5-x-x----7--7-7-x-x-------------------------x-x--------|


ACOUSTIC SOLO: (play intro in background)


e|----2--3p2p0--------55555-7-5~---3p2-3p20----(3)-(2)-(0)-------------------|
b|---3---------3~--3------------------------3-------------(3)---3p1h3s5--3~--|
g|---------------------------------------------------------------------------|
d|---------------------------------------------------------------------------|
A|---------------------------------------------------------------------------|
D|---------------------------------------------------------------------------|

FIRST VERSE/FILL

SECOND VERSE/BREAK

BRIDGE

REFRAIN


DISTORTED SOLO:


e|---------------------------------------------------|
b|---------------------------------------------------|
g|--------5h7--7--5-5~-------------------------------|
d|---s5h7-----------------7h8p7--------5-5b(7)b5-----|
A|------------------------------8-5-8----------------|
D|---------------------------------------------------|

e|----------------------------------8------------------8----------------8-10--10--8-8--s13-13-12-12--13--15-15~---|
b|---------------------8~---xs8--10---10--8~---xs8--10---10--8~---8-8-10------------------------------------------|
g|---(10)b9b(10)--------------------------------------------------------------------------------------------------|
d|--------------10--10--------------------------------------------------------------------------------------------|
A|----------------10----------------------------------------------------------------------------------------------|
D|----------------------------------------------------------------------------------------------------------------|


BRIDGE

REFRAIN

BRIDGE

REFRAIN


INTRO / ACOUSTIC SOLO (a little bit modified)


for the correct rhythm listen to the original track or one of lukes acoustic live versions.
for improvements: mail me. hope you enjony it!
Tap to rate this tab
# A B C D E F G H I J K L M N O P Q R S T U V W X Y Z