Song name
# A B C D E F G H I J K L M N O P Q R S T U V W X Y Z

Touche Amore - Nine tab

eb---------------------------------|
Bb---------------------------------|
Gb---------------------------------|
Db-5-5-5-5-5-5-5-5-5-5-5-5-5-5-5-5-|
Ab-5-5-5-5-5-5-5-5-5-5-5-5-5-5-5-5-|
Db-5-5-5-5-5-5-5-5-5-5-5-5-5-5-5-5-|

---------------------------------|
---------------------------------|
---------------------------------|
-1-1-1-1-1-1-1-1-1-1-1-1-1-1-1-1-|
-1-1-1-1-1-1-1-1-1-1-1-1-1-1-1-1-|
-1-1-1-1-1-1-1-1-1-1-1-1-1-1-1-1-|

---------------------------------|
---------------------------------|
---------------------------------|
-5-5-5-5-5-5-5-5-5-5-5-5-5-5-5-5-|
-5-5-5-5-5-5-5-5-5-5-5-5-5-5-5-5-|
-5-5-5-5-5-5-5-5-5-5-5-5-5-5-5-5-|

---------------------------------|
---------------------------------|
---------------------------------|
-1-1-1-1-1-1-1-1-1-1-1-1-1-1-1-1-|
-1-1-1-1-1-1-1-1-1-1-1-1-1-1-1-1-|
-1-1-1-1-1-1-1-1-1-1-1-1-1-1-1-1-|

*soft bit*
----------------------------------|
----------------------------------|
--------------------------2-2-----|
--------8-8-8-5-5-------3-----3-3-|
----------------------------------|
--5-5-5-----------1-1-1-----------|
  . . . . . . . . . . . . . . . .

----------------------------------|
----------------------------------|
--------------------------2-2-----|
--------8-8-8-5-5-------3-----3-3-|
----------------------------------|
--5-5-5-----------1-1-1-----------|
  . . . . . . . . . . . . . . . .

then:
----------------------------------|
----------------------------------|
--------------------------2-2-----|
--------8-8-8-5-5-------3-----3-3-|
----------------------------------|
--5-5-5-----------1-1-1-----------|

----------------------------------|
----------------------------------|
--------------------------2-2-----|
--------8-8-8-5-5-------3-----3-3-|
----------------------------------|
--5-5-5-----------1-1-1-----------|


http://www.myspace.com/toucheamore
http://www.myspace.com/toucheamore
Tap to rate this tab
# A B C D E F G H I J K L M N O P Q R S T U V W X Y Z