Song name
# A B C D E F G H I J K L M N O P Q R S T U V W X Y Z

Touche Amore - Changing Lanes tab

D#|-------------------------------------------------------------------|
A#|-------------------------------------------------------------------|
F#|-------------------------------------------------------------------|
C#|--5--5--5--8--7--5--4--4--4--8--7--5--1--1--1--8--7--5--7--8--7--10|
G#|--5--5--5-----------4--4--4-----------1--1--1----------------------|
C#|--5--5--5-----------4--4--4-----------1--1--1----------------------|


|----------------------------|
|----------------------------|
|----------------------------|
|--5--5--5--5--5--5--5--5----|
|--5--5--5--5--5--5--5--5----|
|--5--5--5--5--5--5--5--5----|


----------------------------|----------------------------|
----------------------------|----------------------------|
----------------------------|----------------------------|
--7--7--7--7--7--7--7--7----|--1--1--1--1--1--1--1--1----|
--7--7--7--7--7--7--7--7----|--1--1--1--1--1--1--1--1----|
--7--7--7--7--7--7--7--7----|--1--1--1--1--1--1--1--1----|


----------------------------|--------------------|
----------------------------|--------------------|
----------------------------|--------------------|
--1--1--1--1--1--1--1--1----|--5-5-5-5-5-5-5-5---|
--1--1--1--1--1--1--1--1----|--------------------|
--1--1--1--1--1--1--1--1----|--------------------|


--------------------|--------------------|
--------------------|--------------------|
--------------------|--------------------|
--7-7-7-7-7-7-7-7---|--8-8-8-8-8-8-8-8---|
--------------------|--------------------|
--------------------|--------------------|


--------------------|
--------------------|
--------------------|
--------------------|
--6-6-6-6-6-6-6-6---|
--------------------|

|----------------------------|
|----------------------------|
|--12-12-12-12-12-12-12-12---|
|----------------------------|
|--10-10-10-10-10-10-10-10---|
|----------------------------|


----------------------------|----------------------------|
----------------------------|----------------------------|
--14-14-14-14-14-14-14-14---|--15-15-15-15-15-15-15-15---|
----------------------------|----------------------------|
--12-12-12-12-12-12-12-12---|--13-13-13-13-13-13-13-13---|
----------------------------|----------------------------|


----------------------------|----------------------------|
----------------------------|----------------------------|
--8--8--8--8--8--8--8--8----|----------------------------|
----------------------------|--5--5--5--8--7--5--4--4----|
--6--6--6--6--6--6--6--6----|--5--5--5-----------4--4----|
----------------------------|--5--5--5-----------4--4----|


----------------------------|----------------------||
----------------------------|----------------------||
----------------------------|----------------------||
--4--8--7--5--1--1--1--8----|--7--5--7--8--7--10---||
--4-----------1--1--1-------|----------------------||
--4-----------1--1--1-------|----------------------||
Tap to rate this tab
 
# A B C D E F G H I J K L M N O P Q R S T U V W X Y Z