Touche Amore - Condolences tab

Condolences
Touche Amore
Parting The Sea Between Brightness And Me

Drop C tuning

transcribed for guitar.
I was expecting the album to be amazing and it is, but it's this song that
made me realise it's the Carpathian - Isolation (2008) album of 2011. It
speaks to me in so many ways. The only downside: The Melbs show of Touche
Amore/Title Fight's Aussie tour is 18+... Looks like I'm gonna have to go
to Sydney now... Pilgrimage from Tasmania...


INTRO:

Bass:
-----------------------------------|
-----------------------------------|
-----------------------------------|
--1------0------6------------------|

Guitar:
-----------------------------------|
--4------4------4------------------|
--3------3------3------------------|
--1------0-------------------------|
----------------1------------------|
-----------------------------------|


THEN:

Bass:
-----------------------------------|
-----------------------------------|
-----------------------------------|
--1------0------6-------6----------|

Guitar:
----------1---------------1--------|
--4--4--------4---4--4--------4----|
--3--3--3---3---3-3--3--3---3---3--|
--1--1------------0--0-------------|
-----------------------------------|
-----------------------------------|

-----------------------------------|
--4--4----4---4---3--3----3---3----|
--3--3--3---3---3-3--3--3---3---3--|
-----------------------------------|
--1--1------------1--1-------------|
-----------------------------------|
Tap to rate this tab
 
# A B C D E F G H I J K L M N O P Q R S T U V W X Y Z