Song name
# A B C D E F G H I J K L M N O P Q R S T U V W X Y Z

Touche Amore - Amends tab

Amends
Touche Amore
Parting the Sea...

DROP C#


  what have I seen...
--10--------9--------10--------9--------|
----------------------------------------|
---7--------8---------7--------8--------|
----------------------------------------|
----------------------------------------|
----------------------------------------|

-------------------------------------|
--8--------7--------8--------7-------|
-------------------------------------|
--5--------4--------5--------4-------|
-------------------------------------|
-------------------------------------|


--10--------9--------10--------9--------|
----------------------------------------|
---7--------8---------7--------8--------|
----------------------------------------|
----------------------------------------|
----------------------------------------|

-------------------------------------|
--8--------7--------8--------7-------|
-------------------------------------|
--5--------4--------5--------4-------|
-------------------------------------|
-------------------------------------|



--10--------9--------10-----------------|
------------------------------10--------|
---7--------8---------7-----------------|
-------------------------------7--------|
----------------------------------------|
----------------------------------------|

-------------------------------------|
--12-------10--------8--------7------|
-------------------------------------|
--9---------7--------5--------4------|
-------------------------------------|
-------------------------------------|


--10--------9--------10-----------------|
------------------------------10--------|
---7--------8---------7-----------------|
-------------------------------7--------|
----------------------------------------|
----------------------------------------|

    ...hold back the water...
-------------------------------------|
--12-------10--------8--------7------|
-------------------------------------|
--9---------7--------5--------4------|
-------------------------------------|
-------------------------------------|


SOFT INTERLUDE:
(This bit ain't written out exactly but it's in the area,
I can play it and it sounds good, but writing it out I get confused... you'll figure it out...)
----------------------------------------|
----------------------------------------|
----------------------------------------|
-------4-4-4-7-4-7-4-5-5-5-5-5-5-5-4-4--|
--(5)-5-5-5-5-5-5-5-5-4-4-4-4-4-4-5-5---|
----------------------------------------|

           (echo)
------2--------2--------2---5---2-----------(3)--|
--2h3---3-(2h3---3)-2h3---3-------5-----2h3------|
---------------------------------------------0---|
-------------------------------------------------|
-------------------------------------------------|
-------------------------------------------------|


-------------------------------------------|
--3--3--3--3--3--3--3--3-------------------|
--2--2--2--2--2--2--2--2-------------------|
--0--0--0--0--0--0--0--0-------------------|
--0--0--0--0--0--0--0--0-------------------|
--0--0--0--0--0--0--0--0-------------------|


--32-2--2--22-32-2--2--2-------------------|
--3--3--3--3--3--3--3--3-------------------|
--2--2--2--2--2--2--2--2-------------------|
--0--0--0--0--0--0--0--0-------------------|
--0--0--0--0--0--0--0--0-------------------|
--0--0--0--0--0--0--0--0-------------------|


--------5--|
--3--3--3--|
--2--2--2--|
--0--0--0--|
--0--0--0--|
--0--0--0--|


I'll fix it up and make it all neat and tidy another time...
Tap to rate this tab
# A B C D E F G H I J K L M N O P Q R S T U V W X Y Z