Song name
# A B C D E F G H I J K L M N O P Q R S T U V W X Y Z

Touche Amore - Tilde tab

-------------------------------------------------------------------------------
			     TILDE (~)- Touche Amore
-------------------------------------------------------------------------------

Tabbed by: Kamdude
Email: triathlete_max@hotmail.com

Tuning: Half Step Down

Guitar 1:

[intro]

e|----------------------------------------------------------------------------|
B|----------------------------------0-----------------------------------------|
G|12----14--11br--------------------0-----------------------------------------|
D|12----12--12----------------------0-----------------------------------------|
A|10----10--10-----10-----9----9----7-----------------------------------------|
E|10----10--10-----10----10----8----8-----------------------------------------|


[verse]

e|---------------------------------------------------------------------------|
B|---------------------------------------------------------------------------|
G|-12-12-12-12-12-12-12-12-12-12-12-12-12-12-12-12-11-11-11-11-11-11-11-11---|
D|-x--x--x--x--x--x--x--x--x--x--x--x--x--x--x--x--x--x--x--x--x--x--x--x----|
A|-10-10-10-10-10-10-10-10-10-10-10-10-10-10-10-10-10-10-10-10-10-10-10-10---|
E|---------------------------------------------------------------------------|

e|---------------------------------------------------------------------------|
B|---------------------------------------------------------------------------|
G|-11-11-11-11-11-11-11-11---------------------------------------------------|
D|--x--x--x--x--x--x--x--x---4--4--4--4--4--4--4--4--4--4--4--4--4--4--4--4--|
A|-10-10-10-10-10-10-10-10\--5--5--5--5--5--5--5--5--5--5--5--5--5--5--5--5--|
E|---------------------------------------------------------------------------|

e|---------------------------------------------------------------------------|
B|---------------------------------------------------------------------------|
G|---------------------------------------------------------------------------|
D|-2--2--2--2--2--2--2--2--2--2--2--2--2--2--2--2----------------------------|
A|-3--3--3--3--3--3--3--3--3--3--3--3--3--3--3--3----------------------------|
E|---------------------------------------------------------------------------|


e|---------------------------------------------------------------------------|
B|---------------------------------------------------------------------------|
G|-12-12-12-12-12-12-12-12-12-12-12-12-12-12-12-12-11-11-11-11-11-11-11-11---|
D|-x--x--x--x--x--x--x--x--x--x--x--x--x--x--x--x--x--x--x--x--x--x--x--x----|
A|-10-10-10-10-10-10-10-10-10-10-10-10-10-10-10-10-10-10-10-10-10-10-10-10---|
E|---------------------------------------------------------------------------|

e|---------------------------------------------------------------------------|
B|---------------------------------------------------------------------------|
G|-11-11-11-11-11-11-11-11------------0------------------------0-------------|
D|--x--x--x--x--x--x--x--x-------4----------4-------------4---------4--------|
A|-10-10-10-10-10-10-10-10\--5--------------------5---5----------------5-----|
E|---------------------------------------------------------------------------|

e|---------------------------------------------------------------------------|
B|---------------------------------------------------------------------------|
G|---------------------------------------------------------------------------|
D|-2--2--2--2--2--2--2--2--2--2--2--2--2--2--2--2----------------------------|
A|-3--3--3--3--3--3--3--3--3--3--3--3--3--3--3--3----------------------------|
E|---------------------------------------------------------------------------|

"I've got my hands behind my back"
e|---------------------------------------------------------------------------|
B|-8---8---8---8-------------------------------------------------------------|
G|-x---x---x---x-------------------------------------------------------------|
D|-5---5---5---5--------5---5---5---4----------------------------------------|
A|-5---5---5---5--------5---5---5---5----------------------------------------|
E|---------------------------------------------------------------------------|


Guitar 2:

e|---------------------------------------------------------------------------|
B|---------------------------------------------------------------------------|
G|-12-12-12-12-12-12-12-12-12-12-12-12-12-12-12-12-11-11-11-11-11-11-11-11---|
D|-x--x--x--x--x--x--x--x--x--x--x--x--x--x--x--x--x--x--x--x--x--x--x--x----|
A|-10-10-10-10-10-10-10-10-10-10-10-10-10-10-10-10-10-10-10-10-10-10-10-10---|
E|---------------------------------------------------------------------------|

e|---------------------------------------------------------------------------|
B|---------------------------------------------------------------------------|
G|-11-11-11-11-11-11-11-11---------------------------------------------------|
D|--x--x--x--x--x--x--x--x---------------------------------------------------|
A|-10-10-10-10-10-10-10-10\---9--9--9--9--9--9--9--9--9--9--9--9--9--9--9--9-|
E|---------------------------10-10-10-10-10-10-10-10-10-10-10-10-10-10-10-10-|

e|---------------------------------------------------------------------------|
B|---------------------------------------------------------------------------|
G|---------------------------------------------------------------------------|
D|---------------------------------------------------------------------------|
A|--7--7--7--7--7--7--7--7--7--7--7--7--7--7--7--7---------------------------|
E|--8--8--8--8--8--8--8--8--8--8--8--8--8--8--8--8---------------------------|

x2


sorry it's not complete yet, but I'll finish it when I have the time

Tap to rate this tab
# A B C D E F G H I J K L M N O P Q R S T U V W X Y Z