Song name
# A B C D E F G H I J K L M N O P Q R S T U V W X Y Z

Touche Amore - Home Away From Here tab

e|---------------------------------------------------------------|
B|---------------------------------------------------------------|
G|--15------15------------8/11-11-11-1110-10-10-10--------------|
D|------13-------------x2----------------------------------------|
A|--13--13--13-13-11------6/9--9--9--9--8--8--8--8---------------|
D|------13-----13-11---------------------------------------------|

e|---------------------------------------------------------------|
B|---------------------------------------------------------------|
G|-13/15-15-15-15-8-8-8-8-11-11-11-11-10-10-10-10----------------|
D|---------------------------------------------------------------|
A|-11/13-13-13-13-6-6-6-6-9--9--9--9--8--8--8--8-----------------|
D|---------------------------------------------------------------|

e|---------------------------------------------------------------|
B|---------------------------------------------------------------|
G|-13/15-13/15-18------------------------------------------------|
D|---------------------------------------------------------------|
A|-11/1311/13-16------------------------------------------------|
D|---------------------------------------------------------------|
Tap to rate this tab
# A B C D E F G H I J K L M N O P Q R S T U V W X Y Z