Song name
# A B C D E F G H I J K L M N O P Q R S T U V W X Y Z

Touche Amore - Negotiating The Charade tab

 -------------------------------------------------------------------------------
                             SONG NAME - Band Name
-------------------------------------------------------------------------------
Tabbed by: Jordan Becker
E-mail: jorder247@gmail.com

Tuning:drop c#, so tune down half a step and then drop the low Eb to a c#
Intro:
e|10-10-10--8-8-8-7-7-7-7-7-7-7-7-------------------------------------------------|x8
B|7--7--7---7-7-7-9-9-9-9-9-9-9-9-------------------------------------------------|
G|7--7--7---7-7-7-7-7-7-7-7-7-7-7-------------------------------------------------|
D|7--7--7---7-7-7-7-7-7-7-7-7-7-7-------------------------------------------------|
A|--------------------------------------------------------------------------------|
E|--------------------------------------------------------------------------------|

e|------------------------------------------------------------------------------------|
B|------------------------------------------------------------------------------------|
G|------------------------------------------------------------------------------------|
D|0-0-0-3-3-3-0-x-x-x-x---------------------------------------------------------------| x3
A|0-0-0-3-3-3-0-x-x-x-x---------------------------------------------------------------|
E|0-0-0-3-3-3-0-x-x-x-x---------------------------------------------------------------|

e|-----------------------------------------------------------------------------|
B|--------------5-5------------------------------------------------------------|
G|-----------------------------------------------------------------------------|
D|0-0-0-3-3-3-0-3-3------------------------------------------------------------|
A|0-0-0-3-3-3-0----------------------------------------------------------------|
E|0-0-0-3-3-3-0----------------------------------------------------------------|

e|------------------------------------------------------------------------------------|
B|------------------------------------------------------------------------------------|
G|------------------------------------------------------------------------------------|
D|0-0-0-3-3-3-0-x-x-x-x---------------------------------------------------------------| x3
A|0-0-0-3-3-3-0-x-x-x-x---------------------------------------------------------------|
E|0-0-0-3-3-3-0-x-x-x-x---------------------------------------------------------------|

e|-----------------------------------------------------------------------------|
B|--------------5-5-5-5-5-5-5-5------------------------------------------------|
G|-----------------------------------------------------------------------------|
D|0-0-0-3-3-3-0-3-3-3-3-3-3-3-3------------------------------------------------|
A|0-0-0-3-3-3-0----------------------------------------------------------------|
E|0-0-0-3-3-3-0----------------------------------------------------------------|
and then he switches to this chord and plays it 16 times (or he goes back to the other 
one after playing it 8 times. they're just octaves of each other so it's hard to tell. 
sounds good either way)
e|-------------------------|
B|17-----------------------|
G|-------------------------|
D|15-----------------------|
A|-------------------------|
E|-------------------------|

end with:

e|----------------------------------------------------------------------------------|
B|----------------5-5-5-5-----------------------------------------------------------|
G|----------------------------------------------------------------------------------|
D|0-0-0-3-3-0-0-0-3-3-3-3-----------------------------------------------------------|
A|0-0-0-3-3-0-0-0-------------------------------------------------------------------|
E|0-0-0-3-3-0-0-0-------------------------------------------------------------------| x2

e|---------------------------------------------------------------------------------|
B|---------------------------------------------------------------------------------|
G|---------------------------------------------------------------------------------|
D|-0-0-0-3-0-0---------------------------------------------------------------------|
A|-0-0-0-3-0-0---------------------------------------------------------------------|
E|-0-0-0-3-0-0---------------------------------------------------------------------|x2

************************************

| /   slide up
| \   slide down
| h   hammer-on
| p   pull-off
| ~   vibrato
| +   harmonic
| x   Mute note
| b   Bend
| pb  Pre-bend
| br  Bend release
| pbr Pre-bend release
| brb Bend release bend

************************************
Tap to rate this tab
# A B C D E F G H I J K L M N O P Q R S T U V W X Y Z