Song name
# A B C D E F G H I J K L M N O P Q R S T U V W X Y Z

Tough Lovers - Before The Sun Sets tab

e|---5--4--4/5--2--5--4--4/5--9--7--5--5--5--5--5---|
B|--------------------------------------------------|
G|--------------------------------------------------|
D|--------------------------------------------------|
A|--------------------------------------------------|
E|--------------------------------------------------|

e|--4--4--4--4--2--2--2--2--2--2--2--2--5--5--5--5--|
B|--------------------------------------------------|
G|--------------------------------------------------|
D|--------------------------------------------------|
A|--------------------------------------------------|
E|--------------------------------------------------|

e|--4--4--4--4--2--2--2--2--2--2--2--2--5--5--5--5--|
B|--------------------------------------------------|
G|--------------------------------------------------|
D|--------------------------------------------------|
A|--------------------------------------------------|
E|--------------------------------------------------|

e|--------------------------------------------------|
B|--1--1--1--1--1--1--1--1--1--2--2--2--2--2--2--2--|
G|--------------------------------------------------|
D|--------------------------------------------------|
A|--------------------------------------------------|
E|--------------------------------------------------|

e|--------------------------------------------------|
B|--2--2--2--2--3--3--2--2--2--3--3--2--2--2--3--3--|
G|--------------------------------------------------|
D|--------------------------------------------------|
A|--------------------------------------------------|
E|--------------------------------------------------|

e|-----5--4--4/5--2--5--4--4/5--9--7--5--5--5--5--5-|
B|--2-----------------------------------------------|
G|--------------------------------------------------|
D|--------------------------------------------------|
A|--------------------------------------------------|
E|--------------------------------------------------|

e|--4--4--4--4--2--2--2--2--2--2--2--2--5--5--5--5--|
B|--------------------------------------------------|
G|--------------------------------------------------|
D|--------------------------------------------------|
A|--------------------------------------------------|
E|--------------------------------------------------|

e|--4--4--4--4--9--7--5--5--5--5--5----------------|
B|------------------------------------1--1--1--1--1-|
G|--------------------------------------------------|
D|--------------------------------------------------|
A|--------------------------------------------------|
E|--------------------------------------------------|

e|--------------------------------------------------|
B|--1--1--2--2--2--2--2--2--2--2--2--1--1--1--1--1--|
G|--------------------------------------------------|
D|--------------------------------------------------|
A|--------------------------------------------------|
E|--------------------------------------------------|

e|--------------------------------------------------|
B|--1--1--2--2--2--2--2--2--2--2--2--2--2--3--3--2--|
G|--------------------------------------------------|
D|--------------------------------------------------|
A|--------------------------------------------------|
E|--------------------------------------------------|

e|--------------------------------------------------|
B|--2--2--3--3--2--2--2--3--3--2--2--2--3--3--2--2--|
G|--------------------------------------------------|
D|--------------------------------------------------|
A|--------------------------------------------------|
E|--------------------------------------------------|
e|--------------------------------------------------|

e|------------------------8--8--8--8--8--8--8--9--9-|
B|--3--2--3--2--3--2--3-----------------------------|
G|--------------------------------------------------|
D|--------------------------------------------------|
A|--------------------------------------------------|
E|--------------------------------------------------|

e|--9--9--9--9--9--9--9--8--8--8--8--8--8--8--9--9--|
B|--------------------------------------------------|
G|--------------------------------------------------|
D|--------------------------------------------------|
A|--------------------------------------------------|
E|--------------------------------------------------|

e|--------------------------------------------------|
B|---------------------0-----2--------------------0-|
G|--2--2--2--2--2--2-----2-----2--2--2--2--2--2-----|
D|--------------------------------------------------|
A|--------------------------------------------------|
E|--------------------------------------------------|

e|-----2-----2--2--2--2--2--5--2--7--2--2--2--2--2--|
B|--2-----2-----------------------------------------|
G|--------------------------------------------------|
D|--------------------------------------------------|
A|--------------------------------------------------|
E|--------------------------------------------------|

e|--2--2--5--2--7--2--2--2--2--2--2--2--5--2--7--2--|
B|--------------------------------------------------|
G|--------------------------------------------------|
D|--------------------------------------------------|
A|--------------------------------------------------|
E|--------------------------------------------------|

e|--9--9-----------------0-----2--2--3--3--2--2--2--|
B|--------2--2--2--2--2-----2-----------------------|
G|--------------------------------------------------|
D|--------------------------------------------------|
A|--------------------------------------------------|
E|--------------------------------------------------|

e|--3--3--2--2--2--3--3--2--2--2--3--3--2/3/2-------|
B|--------------------------------------------------|
G|--------------------------------------------------|
D|--------------------------------------------------|
A|--------------------------------------------------|
E|--------------------------------------------------|

-end-

http://toughlovers.com/
Tap to rate this tab
# A B C D E F G H I J K L M N O P Q R S T U V W X Y Z