Song name
# A B C D E F G H I J K L M N O P Q R S T U V W X Y Z

Toughassmotherfucker - That Bitch tab

-----------------------------------------------------------------
"That Bitch" - Toughassmotherfucker 
-----------------------------------------------------------------
Tabbed by: THIS IS AN OFFICIAL TAMF TAB.
Email: TAMFmusic@gmail.com
http://www.myspace.com/toughassmotherfuckermusic

Tuning: Standard 1 whole step down



Pre Intro (Harmonics)
e|---------------------------------------------------------------|
B|-<12>---------<12>---------<12>---------<7>--------------------|
G|-----<12>---------<12>---------<12>--------<7>-----------------|
D|---------<12>---------<12>---------<12>-------<7>--------------|
A|---------------------------------------------------------------|
E|---------------------------------------------------------------|

e|---------------------------------------------------------------|
B|-<12>---------<12>---------<12>---------<5>--------------------|
G|-----<12>---------<12>---------<12>--------<5>-----------------|
D|---------<12>---------<12>---------<12>-------<5>--------------|
A|---------------------------------------------------------------|
E|---------------------------------------------------------------|

e|---------------------------------------------------------------|
B|-<12>---------<12>---------<12>---------<7>--------------------|
G|-----<12>---------<12>---------<12>--------<7>-----------------|
D|---------<12>---------<12>---------<12>-------<7>--------------|
A|---------------------------------------------------------------|
E|---------------------------------------------------------------|

e|---------------------------------------------------------------|
B|-<12>---------<12>---------<7>---------<12>~~~~~~~~~-----------|
G|-----<12>---------<12>---------<7>-----------------------------|
D|---------<12>---------<12>---------<7>-------------------------|
A|---------------------------------------------------------------|
E|---------------------------------------------------------------|


Intro

Guitar 1 
e|----------2------------------0----------------------0----------|
B|--------3---3--------------0---0----------------------0--------|
G|------4------------------2-----------------------1------1------|
D|----4------------------2-----------------------2----------2----|
A|--2-----------2h4p2--0------------0h2h4p0----2-----------------|
E|-------------------------------------------0-------------------|

e|-------------------3-------------| *Guitar 1 plays this 4 times 
B|---------------------3-----------|  and then goes to *Ending 1*
G|-----------------0---------------|
D|---------------0-----------------|
A|--0h2h4p2----2---------4h5p4p0---|
E|-----------3---------------------|

Guitar 2 (on third and fourth time)
e|--14~~~~----12~~~~-----10~~~~-----9~~~~------------------------|
B|--15~~~~----14~~~~-----12~~~~----10~~~~------------------------|
G|---------------------------------------------------------------|
D|---------------------------------------------------------------|
A|---------------------------------------------------------------|
E|---------------------------------------------------------------|
						*Ending 1*
e|--14~~~~----12~~~~-----10~~~~-----9~~~~--------7~~~~~~~~~~~~~--|
B|--15~~~~----14~~~~-----12~~~~----10~~~~--------7~~~~~~~~~~~~~--|
G|---------------------------------------------------------------|
D|---------------------------------------------------------------|
A|---------------------------------------------------------------|
E|---------------------------------------------------------------|

Guitar 1 -*Ending 1*
e|---------0---------------0---------------0---------------0-------|
B|-------3---3-----------3---3-----------3---3-----------3---3-----|
G|-----4-------4-------4-------4-------4-------4-------4-------4---|
D|---4-----------4---4-----------4---4-----------4---4-----------4-|
A|-2---------------2---------------2---------------2---------------|
E|-----------------------------------------------------------------|


Repeat Guitar 1 and Ending 1 through verse.




Once There was a girl
who gave her love to me
I never thought I would find her
it's just not meant to be

One day, she left me
for some other dick
She said she was tired
and fed up with all my shit

She left me to DIE



_________________________________________________________________
_________________________________________________________________



(Guitar becomes heavy and tempo changes)

Guitar 1
e|----------------------| *Repeat 4 times, then to next part.
B|----------------------|
G|----------------------|
D|--9----8--7--6--------|
A|--9----8--7--6--------|
E|--7----6--5--4--------|
   "That bitch can..."

Guitar 1
e|-------------------------------------------------| *Repeat 4 times,
B|-------------------------------------------------|  then to next part.
G|--4/5\2--4/5\4---------4/5\4--4/5\4--------------|
D|--4/5\2--4/5\4---------4/5\4--4/5\4--------------|
A|--2/3\2--2/3\2---------2/3\2--2/3\2--------------|
E|----------------00000---------------00000--------|
				      "That Bitch!"

Guitar 1
e|-----------------------------------------| *Repeat 4 times, then
B|-----------------------------------------|  repeat all the parts
G|-----------------------------------------|  again 2 times, but 
D|--------3--------5--------7-8-9-10-11----|  last time play only
A|--------3--------5--------7-8-9-10-11----|  first part.
E|-000000-1-000000-3-000000-5-6-7-8--9-----|


Bridge

Guitar 1
e|------------------------------------------------------------------------|
B|------------------------------------------------------------------------|
G|------------------------------------------------------------------------|
D|--6---------6-5--------5-4--------4-3-----------------------------------|
A|--6---------6-5--------5-4--------4-3-----------------------------------|
E|--4---------4-3--------3-2--------2-1-----------------------------------|

Guitar 2
e|--------------------------------------12*15* (slide finger up fretboard-|
B|---------------------------12*15*-------------to create effect)---------|
G|-----12*14*-------------------------------------------------------------|
D|----------------12*14*--------------------------------------------------|
A|------------------------------------------------------------------------|
E|------------------------------------------------------------------------|
       *trill on those two frets 

Guitar
e|-----------------------------------------------------------------|
B|-----------------------------------------------------------------|
G|-----------------------------------------------------------------|
D|-3------2------2------2------2-3------2------2--2-3-4-5-2-3-4-5--|
A|-3------2------2------2------2-3------2------2--2-3-4-5-2-3-4-5--|
E|-1--00000--00000--00000--00000-1--00000--00000--0-1-2-3-0-1-2-3--|


Interlude

Guitar 1
e|-------------------------------------------| *Repeat 8 times,
B|-------------------------------------------|  until solo*
G|-------------------------------------------|
D|---4----4----4----4----4----4----4--5------|
A|---4----4----4----4----4----4----4--5------|
E|-222--222--222--222--222--222--222--3------|


Presolo

Guitar 1
e|-------------------------------|
B|-------------------------------|
G|-------------------------------|
D|--7-----5----4----2------------|
A|--7-----5----4----2------------|
E|--5-----3----2----0------------|
              "Suck a dick!"



Guitar Solo

Guitar 1 - Rhythm
e|----------------------| *Repeat 4 times
B|----------------------|
G|----------------------|
D|--9--8-7-6------------|
A|--9--8-7-6------------|
E|--7--6-5-4------------|

e|------------------------------------------|
B|------------------------------------------|
G|------------------------------------------|
D|--7--6-5-4---7--6-5-4--9--8-7-6--9--8-7-6-|
A|--7--6-5-4---7--6-5-4--9--8-7-6--9--8-7-6-|
E|--5--4-3-2---5--4-3-2--7--6-5-4--7--6-5-4-|

Guitar 2 - Solo (YOU HAVE TO BE TAMF TO NAIL THIS SHIT)
e|---------------------------------------------------------------|
B|---------------------------------------------------------------|
G|--14b-14b-14b-14b-14b-12----12*14(slide finger to make effect)-|
D|---------------------------------------------------------------|
A|---------------------------------------------------------------|
E|---------------------------------------------------------------|
 
e|-----------------------12*-15*-14*-15-14-15-14-----------------|
B|-----------12*-14*-15*-----------------------------------------|
G|--14b-12-------------------------------------------------------|
D|---------------------------------------------------------------|
A|---------------------------------------------------------------|
E|---------------------------------------------------------------|
            *tremelo picking
e|--12*---17*-15*-12*-17*-15*-12*-17*-15*-12*-17*-15*-12*--------|
B|---------------------------------------------------------------|
G|---------------------------------------------------------------|
D|---------------------------------------------------------------|
A|---------------------------------------------------------------|
E|---------------------------------------------------------------|

e|---------------------------------------------------------------|
B|-17*-15*-12*-17*-15*-12*-17*-15*-12*-17*-15*-12*---------------|
G|---------------------------------------------------------------|
D|---------------------------------------------------------------|
A|---------------------------------------------------------------|
E|---------------------------------------------------------------|

e|--19*-17*-15*-19*-17*-15*-19*-17*-15*-19*-17*-15*--------------|
B|---------------------------------------------------------------|
G|---------------------------------------------------------------|
D|---------------------------------------------------------------|
A|---------------------------------------------------------------|
E|---------------------------------------------------------------|

e|--19*-17*-15*-19*-17*-15*-19*-17*-15*-19*-17*-15*--------------|
B|---------------------------------------------------------------|
G|---------------------------------------------------------------|
D|---------------------------------------------------------------|
A|---------------------------------------------------------------|
E|---------------------------------------------------------------|

e|--20-20-20--20--19-17-19-17-15---------------------------------|
B|---------------------------------------------------------------|
G|---------------------------------------------------------------|
D|---------------------------------------------------------------|
A|---------------------------------------------------------------|
E|---------------------------------------------------------------|

e|--12-14*-12*---------12*---------------------------------------|
B|-------------15*-13*-----15*-13*-12*---------------------------|
G|---------------------------------------------------------------|
D|---------------------------------------------------------------|
A|---------------------------------------------------------------|
E|---------------------------------------------------------------|

e|---------------------------------------------------------------|
B|---------------------------------------------------------------|
G|--14b-14b-14b-14b-14b-12---------------------------------------|
D|---------------------------------------------------------------|
A|---------------------------------------------------------------|
E|---------------------------------------------------------------|


Post Solo
Guitar 1
e|---------------------------------------| *Repeat 4 times
B|---------------------------------------|
G|---------------------------------------|
D|--------------------------1---1--------|
A|--------------------------1---1--------|
E|-000000000000000000000000---0----------|

Guitar 2
e|-------------------------22b(up to e)--------------------------|
B|--15b(up to e)-------------------------------------------------|
G|---------------------------------------------------------------|
D|---------------------------------------------------------------|
A|---------------------------------------------------------------|
E|---------------------------------------------------------------|




Ending Verse
Guitar 1 
e|-----------------------------| *Repeat 4 times
B|-----------------------------|
G|-----------------------------|
D|--9--8-7-6-------------------|
A|--9--8-7-6-------------------|
E|--7--6-5-4-------------------|
    "That bitch can..."


Outro
e|---------------------------------------------------| *Repeat twice
B|---------------------------------------------------|
G|---------------------------------------------------|
D|--6-7-8-9-6-7-8-9-6-7-8-9-6-7-8-9------------------|
A|--6-7-8-9-6-7-8-9-6-7-8-9-6-7-8-9------------------|
E|--4-5-6-7-4-5-6-7-4-5-6-7-4-5-6-7------------------|
    "choke on it"       "and DIE"

End
e|-----------------|
B|-----------------|
G|-----------------|
D|--3-3-3-3-2------|
A|--3-3-3-3-2------|
E|--1-1-1-1-0------|



COPYRIGHT TOUGHASSMOTHERFUCKER TABS 2009
DEATH RIGHTS RESERVED



| /  slide up
| \  slide down
| h  hammer-on
| p  pull-off
| ~  vibrato
|<>  harmonic
| x  Mute note
| *  tremelo pick
Tap to rate this tab
 
# A B C D E F G H I J K L M N O P Q R S T U V W X Y Z