Song name
# A B C D E F G H I J K L M N O P Q R S T U V W X Y Z

Toughassmotherfucker - Fuck Viacom tab

-----------------------------------------------------------------
"FUCK VIACOM" - Toughassmotherfucker
-----------------------------------------------------------------
Tabbed by: THIS IS AN OFFICIAL TAMF TAB
Email: TAMFmusic@gmail.com
http://www.myspace.com/toughassmotherfuckermusic

Tuning: Standard


Verse
e|-----------------------------------------|
B|-----------------------------------------|
G|-----------------------------------------|
D|-7-----------------5---------------------|
A|-7-----------------5---------------------|
E|-5-55555555555555--3-55555555555555------|
    "Fuck..."         "Viacom..."
e|-----------------------------------------|  *Repeat once more,
B|-----------------------------------------|   then to chorus
G|-----------------------------------------|
D|-3-----------------2---------------------|
A|-3-----------------2---------------------|
E|-1-11111111111111--0-00000000000000------|
    "Fuck..."         "Viacom..."

Chorus
e|---------------------------------------------------------------|
B|---------------------------------------------------------------|
G|---------------------------------------------------------------|
D|---------------------------------------------------------------|
A|--5--4--3---5--4--3---5--4--3---5--4--3------------------------|
E|--3--2--1---3--2--1---3--2--1---3--2--1------------------------|
   "Suck my dick..

*Play verse and chorus again

| In 2nd verse after 2nd "fuck viacom"
| e|---<12>-----------|
| B|---<12>-----------|
| G|---<12>-----------|
| D|------------------|
| A|------------------| 
| E|------------------|
        *with bar


Guitar Solo
e|----------------------------15b-15b-15b--------|
B|-------------3---3/----------------------------|
G|--2----5---------------------------------------|
D|-----------------------------------------------|
A|-----------------------------------------------|
E|-----------------------------------------------|

e|--12*-14*-15*-14*-12*-14*-15*-14*-12*-14*-15*-14*-12*----------|
B|---------------------------------------------------------------|
G|--------------------------------------------------------14-----|
D|---------------------------------------------------------------|
A|---------------------------------------------------------------|
E|---------------------------------------------------------------|
      *tremelo pick
e|--17*-15*-12*--17*-15*-12*-------------------------------------|
B|---------------------------17*-15*-12*-------------------------|
G|----------------------------------------14---------------------|
D|---------------------------------------------------------------|
A|---------------------------------------------------------------|
E|---------------------------------------------------------------|

e|---------------------------------------------------------------|
B|---------------------------------------------------------------|
G|--12*-11*-9*-11*-9*-7*-9*-7*-5-7-5-2---------------------------|
D|---------------------------------------------------------------|
A|---------------------------------------------------------------|
E|---------------------------------------------------------------|

Repeat Verse and chorus


| In 3nd verse after 2nd "fuck viacom"
| e|------------------|
| B|------------------|
| G|------------------|
| D|------------------|
| A|------------------| 
| E|----0-------------|
       *with bar

END


COPYRIGHT TOUGHASSMOTHERFUCKER TABS 2009
DEATH RIGHTS RESERVED





| /  slide up
| \  slide down
| h  hammer-on
| p  pull-off
| ~  vibrato
| <> harmonic
| x  Mute note
| *  tremelo pick
Tap to rate this tab
 
# A B C D E F G H I J K L M N O P Q R S T U V W X Y Z