Song name
# A B C D E F G H I J K L M N O P Q R S T U V W X Y Z

Touhou Project - Eastern Dream tab

-------------------------------------------------------------------------------
			     Eastern Dream - ZUN (Touhou Project 6)
-------------------------------------------------------------------------------


Tuning: Standard


e|---3-7--|---------|---------|---3/7--|-5-3-2/-|-/10~--------|
B|-5------|-10-8-7--|---------|-5------|--------|--------12~--|
G|--------|---------|-9-7-9~--|--------|--------|-------------|
D|--------|---------|---------|--------|--------|-------------|
A|--------|---------|---------|--------|--------|-------------|
E|--------|---------|---------|--------|--------|-------------|

e|----10-14--|-12-10-9--|----12-9~--|-7-5----|
B|-12--------|----------|-12--------|-----7--|
G|-----------|----------|-----------|--------|
D|-----------|----------|-----------|--------|
A|-----------|----------|-----------|--------|
E|-----------|----------|-----------|--------|

e|--------|----------|--------|
B|--------|----------|--------|
G|-4-6-7--|-7-9-6----|--------|
D|--------|-------9--|-7-9~~--|
A|--------|----------|--------|
E|--------|----------|--------|


And then:


e|-6-5---------------|-6-5---------3-1~--|
B|-----6-------8-6~--|-----6-------------|
G|-------7-7~-5------|-------7-7~-5------|
D|-------------------|-------------------|
A|-------------------|-------------------|
E|-------------------|-------------------|



************************************

| /   slide up
| \   slide down
| h   hammer-on
| p   pull-off
| ~   vibrato
| +   harmonic
| x   Mute note
| b   Bend
| pb  Pre-bend
| br  Bend release
| pbr Pre-bend release
| brb Bend release bend

************************************
Tap to rate this tab
# A B C D E F G H I J K L M N O P Q R S T U V W X Y Z