Guitaretab - guitar tabs
Song name
# A B C D E F G H I J K L M N O P Q R S T U V W X Y Z
Home / T / Tourettes / Tha tab

Tourettes - Tha tab

#----------------------------------PLEASE NOTE---------------------------------#
#This file is the author's own work and represents their interpretation of the #
#song. You may only use this file for private study, scholarship, or research. #
#------------------------------------------------------------------------------#
#


From cpurp@netnow.micron.net Fri May 16 08:40:15 1997
Date: Thu, 15 May 1997 21:05:38 -0600
From: "Clifford M. Yeary" 
To: guitar@olga.net
Subject: Tourette's THA TAB
[ Tab from: http://www.guitaretab.com/t/tourettes/19600.html ]
Here it is
Verse
--------------------------------------------------------|
--------------------------------------------------------|
-----------2-22---3-33----------------------------------|
----3-33---2-22---3-33---4-44---------------------------|
----3-33---0-00---1-11---4-44---------------------------|
----1-11-----------------2-22---------------------------|

Chorus
--------------------------------------------------|
--------------------------------------------------|
--------------------------------------------------|
------4-------------------------------------------|
------4--3/-44------------------------------------|
------2-------------------------------------------|

simple.

My first tab but I know it's right.

comments?   jvy@micron.net