Song name
# A B C D E F G H I J K L M N O P Q R S T U V W X Y Z

Touriste - What Are We tab

Help us improve GuitareTab! Take a short survey!
---------------------------------------------------------------------------------
			     WHAT ARE WE - Touriste
---------------------------------------------------------------------------------


I tryed to make it easy to understand and not make any mistakes but 
if you have any problems come to the touriste forum and complain..
oohh i play it a bit different now, but i wrote out what i 
played on the ep recording so you can play along.



INTRO (Drums only 2 bars)
Gtr1
 |-----------------------------|----------------------------|
 |.----------------------------|----------------------------|
 |--16-16-16-16-16-16-16-16-16-|-15-15-15-15-15-15-15-15-15-|
 |--16-16-16-16-16-16-16-16-16-|-16-16-16-16-16-16-16-16-16-|
 |.-14-14-14-14-14-14-14-14-14-|-14-14-14-14-14-14-14-14-14-|
 |-----------------------------|----------------------------|

 |----------------------------|------------------------|x2
 |----------------------------|-----------------------.|
 |--15-15-15-15-15-15-15-15-x-|--18-18-18-20-20-20-20--|
 |--14-14-14-14-14-14-14-14-x-|--16-16-16-16-16-16-16--|
 |--13-13-13-13-13-13-13-13-x-|--18-18-18-18-18-18-18-.|
 |----------------------------|------------------------|
   
Gtr2 (second time only)
 |--------------------------|-------------------------|-------------------------|
 |--------------------------|-------------------------|-------------------------|
 |-16-16-16-16-16-16-16-/18-|-15-15-15-15-15-15-15-15-|-15-15-15-15-15-15-15-15-|
 |--------------------------|-------------------------|-------------------------|
 |--------------------------|-------------------------|-------------------------|
 |--------------------------|-------------------------|-------------------------|

 |----------------------|
 |----------------------|
 |----------------------|
 |-18-18-18-20-20-20-20-|
 |----------------------|
 |----------------------|



VERSE 1
Gtr1
 |------------|------------|------------|----------------|x2
 |.-----------|------------|------------|---------------.|
 |--------16--|--------15--|--------15--|--------18--20--|
 |-----16-----|-----16-----|-----16-----|-----16---------|
 |.-14--------|--14--------|--13--------|--18-----------.|
 |------------|------------|------------|----------------|



CHOURS
Gtrs1+2
 |--------------------------|-------------------------|
 |.-------------------------|-------------------------|
 |--13-13-13-15-15-15-16-16-|-11-11-11-20-20-20-20-20-|
 |--X--X--X--X--X--X--X--X--|-X--X--X--X--X--X--X--X--|
 |.-11-11-11-13-13-13-14-14-|-9--9--9--18-18-18-16-16-|
 |--------------------------|-------------------------|

 |-----------------|-----------------------|X2
 |-----------------|----------------------.|
 |-9-9-9-8-8-8-8-8-|-9-9-9-11-11-11-11-11--|
 |-9-9-9-9-9-9-9-9-|-9-9-9-9--9--9--9--9---|
 |-7-7-7-7-7-7-7-7-|-7-7-7-7--7--7--7--7--.|
 |-----------------|-----------------------|



SOLO 1
Gtr1
 |----------------------------|----------------------------|
 |----------------------------|----------------------------|
 |-16-16-16-16-16-16-16-16-16-|-15-15-15-15-15-15-15-15-15-|
 |-16-16-16-16-16-16-16-16-16-|-16-16-16-16-16-16-16-16-16-|
 |-14-14-14-14-14-14-14-14-14-|-14-14-14-14-14-14-14-14-14-|
 |----------------------------|----------------------------|

 |----------------------------|-----------------------|
 |----------------------------|-----------------------|
 |--15-15-15-15-15-15-15-15-x-|--18-18-18-20-20-20-20-|
 |--14-14-14-14-14-14-14-14-x-|--16-16-16-16-16-16-16-|
 |--13-13-13-13-13-13-13-13-x-|--18-18-18-18-18-18-18-|
 |----------------------------|-----------------------|

GTR3							vb~~~~~~~~~~~~
|----------------|----------------|------------------|----------------|
|----------------|----------------|------------------|----------------|
|-8---8---11-9-8-|-8---8---11-9-8-|-8---8---11-9-8\--|-\4-------------|
|---9---9--------|---9---9--------|---9---9----------|----------------|
|----------------|----------------|------------------|----------------|
|----------------|----------------|------------------|----------------|



VERSE 2
Gtr1
 |------------|------------|------------|----------------|x2
 |.-----------|------------|------------|---------------.|
 |--------16--|--------15--|--------15--|--------18--20--|
 |-----16-----|-----16-----|-----16-----|-----16---------|
 |.-14--------|--14--------|--13--------|--18-----------.|
 |------------|------------|------------|----------------|



CHOURS
Gtrs1+2
 |--------------------------|-------------------------|
 |.-------------------------|-------------------------|
 |--13-13-13-15-15-15-16-16-|-11-11-11-20-20-20-20-20-|
 |--X--X--X--X--X--X--X--X--|-X--X--X--X--X--X--X--X--|
 |.-11-11-11-13-13-13-14-14-|-9--9--9--18-18-18-16-16-|
 |--------------------------|-------------------------|

 |-----------------|-----------------------|X2
 |-----------------|----------------------.|
 |-9-9-9-8-8-8-8-8-|-9-9-9-11-11-11-11-11--|
 |-9-9-9-9-9-9-9-9-|-9-9-9-9--9--9--9--9---|
 |-7-7-7-7-7-7-7-7-|-7-7-7-7--7--7--7--7--.|
 |-----------------|-----------------------|



SOLO 2
Gtr1
 |-----------------------------|----------------------------|
 |.----------------------------|----------------------------|
 |--16-16-16-16-16-16-16-16-16-|-15-15-15-15-15-15-15-15-15-|
 |--16-16-16-16-16-16-16-16-16-|-16-16-16-16-16-16-16-16-16-|
 |.-14-14-14-14-14-14-14-14-14-|-14-14-14-14-14-14-14-14-14-|
 |-----------------------------|----------------------------|

 |----------------------------|------------------------|x2
 |----------------------------|-----------------------.|
 |--15-15-15-15-15-15-15-15-x-|--18-18-18-20-20-20-20--|
 |--14-14-14-14-14-14-14-14-x-|--16-16-16-16-16-16-16--|
 |--13-13-13-13-13-13-13-13-x-|--18-18-18-18-18-18-18-.|
 |----------------------------|------------------------|

GTR3							vb~~~~~~~~~~~~
|-----------------|----------------|------------------|----------------|x2
|.----------------|----------------|------------------|--------------.-|
|--8---8---11-9-8-|-8---8---11-9-8-|-8---8---11-9-8\--|-\4-------------|
|----9---9--------|---9---9--------|---9---9----------|----------------|
|.----------------|----------------|------------------|--------------.-|
|-----------------|----------------|------------------|----------------|



VERSE 3			____________________
			|1.	  |2.
|-------|-------|-------|---------|--------|
|.------|-------|-------|--------.|--------|
|--16---|--15---|--15---|--18-20--|---18---|
|--16---|--16---|--16---|--16-----|---16---|
|.-14---|--14---|--13---|--18----.|---18---|
|-------|-------|-------|---------|--------|



CHOURS
Gtrs1+2
 |--------------------------|-------------------------|
 |.-------------------------|-------------------------|
 |--13-13-13-15-15-15-16-16-|-11-11-11-20-20-20-20-20-|
 |--X--X--X--X--X--X--X--X--|-X--X--X--X--X--X--X--X--|
 |.-11-11-11-13-13-13-14-14-|-9--9--9--18-18-18-16-16-|
 |--------------------------|-------------------------|

 |-----------------|-----------------------|X2
 |-----------------|----------------------.|
 |-9-9-9-8-8-8-8-8-|-9-9-9-11-11-11-11-11--|
 |-9-9-9-9-9-9-9-9-|-9-9-9-9--9--9--9--9---|
 |-7-7-7-7-7-7-7-7-|-7-7-7-7--7--7--7--7--.|
 |-----------------|-----------------------|


CHOURS HEAVY
Gtrs1+2
 |-------------------------------------------------|
 |-------------------------------------------------|
 |-13-13-13-13-13-13-13-13-13-13-13-13-13-13-13-13-|
 |-X--X--X--X--X--X--X--X--X--X--X--X--X--X--X--X--|
 |-11-11-11-11-11-11-11-11-11-11-11-11-11-11-11-11-|
 |-------------------------------------------------|

 |-------------------------------------------------|
 |-------------------------------------------------|
 |-15-15-15-15-15-15-15-15-16-16-16-16-16-16-16-16-|
 |-X--X--X--X--X--X--X--X--X--X--X--X--X--X--X--X--|
 |-13-13-13-13-13-13-13-13-14-14-14-14-14-14-14-14-|
 |-------------------------------------------------|

 |-------------------------------|-------------------------------|
 |-------------------------------|-------------------------------|
 |-11-11-11-11-11-11-11-11-11-11-|-20-20-20-20-21-21-21-21-21-21-|
 |-X--X--X--X--X--X--X--X--X--X--|-X--X--X--X--X--X--X--X--X--X--|
 |-9--9--9--9--9--9--9--9--9--9--|-18-18-18-18-19-19-19-19-19-19-|
 |-------------------------------|-------------------------------|

 |-------------------------|-------------------------|
 |-------------------------|-------------------------|
 |-11-11-11-11-11-11-11-11-|-20-20-20-20-21-21-21-21-|
 |-X--X--X--X--X--X--X--X--|-X--X--X--X--X--X--X--X--|
 |-9--9--9--9--9--9--9--9--|-18-18-18-18-19-19-19-19-|
 |-------------------------|-------------------------|

 |-------------------------------|-------------------------------|
 |-------------------------------|-------------------------------|
 |-20-20-20-20-21-21-21-21-21-21-|-20-20-20-20-21-21-21-21-21-21-|
 |-X--X--X--X--X--X--X--X--X--X--|-X--X--X--X--X--X--X--X--X--X--|
 |-18-18-18-18-19-19-19-19-19-19-|-18-18-18-18-19-19-19-19-19-19-|
 |-------------------------------|-------------------------------|


OUTRO
Gtr1
|-------|-------|-------|-------------|
|-------|-------|-------|-------------|
|--16---|--16---|--16---|--11-9-8--4--|
|--16---|--16---|--16---|----------4--|
|--14---|--14---|--14---|----------2--|
|-------|-------|-------|-------------|


| /  slide up
| \  slide down
| h  hammer-on
| p  pull-off
| ~  vibrato
| +  harmonic
| x  Mute note

Rob    www.touriste.co.uk
===============================================================================
Related for What Are We tab