Guitaretab - guitar tabs
Song name
# A B C D E F G H I J K L M N O P Q R S T U V W X Y Z

Tourniquet - Psychosurgery tab

#----------------------------------PLEASE NOTE---------------------------------#
#This file is the author's own work and represents their interpretation of the #
#song. You may only use this file for private study, scholarship, or research. #
#------------------------------------------------------------------------------#

PSYCHOSURGERY
As recorded by Tourniquet
(From the 2001 Album PSYCHOSURGERY- REISSUE)

Transcribed by Ibeanez
	



Gtr I (D# G# C# F# A# D#) - 'Rhythm1'
Gtr II (D# G# C# F# A# D#) - 'Rhythm2'
Gtr III (D# G# C# F# A# D#) - 'Lead1'
Gtr IV (D# G# C# F# A# D#) - 'Lead2'

  Q=155
 2/4                  4/4
  Gtr I
                                   ~~
  S S S S  S S S S     S  S  S  S  Q   +S  S S S  S S S S
|------------------||-------------------------------------|
|------------------||o------------------------------------|
|------------------||-------------------------------------|
|---8-8-8h10p8-8-8-||----------------------8-8-8h10p8-8-8-|
|------------------||o-8h10-10-10-10--(10)----------------|
|------------------||-------------------------------------|
|
| Gtr II
|                                  ~~
| S S S S  S S S S     S  S  S  S  Q   +S  S S S  S S S S
|------------------||-------------------------------------|
|------------------||o------------------------------------|
|------------------||-------------------------------------|
|------------------||-------------------------------------|
|---5-5-5h=6p5-5-5-||o-0h=1--1--1--1---(1)-5-5-5h=6p5-5-5-|
|------------------||-------------------------------------|


              ~~                                    ~~
  S  S  S  S  Q   +S  S S S  S S S S    S  S  S  S  Q   +S  S S S  S S S S
|------------------------------------|----------------------------------------|
|------------------------------------|----------------------------------------|
|------------------------------------|-12p11-11-11-11--(11)-------------------|
|---------------------8-8-8h10p8-8-8-|----------------------8-8-8h10p8-8-8----|
|------------------------------------|----------------------------------------|
|-8h10-10-10-10--(10)----------------|----------------------------------------|
|
|             ~~                                    ~~
| S  S  S  S  Q   +S  S S S  S S S S    S  S  S  S  Q   +S  S S S  S S S S
|------------------------------------|----------------------------------------|
|------------------------------------|----------------------------------------|
|------------------------------------|----------------------------------------|
|------------------------------------|--8p=7--7--7--7---(7)-------------------|
|---------------------5-5-5h=6p5-5-5-|----------------------5-5-5h=6p5-5-5----|
|-1h=3--3--3--3---(3)----------------|----------------------------------------|


           ~
   S S S S Q  +S  S S S  S S S S    S  S  S  S  S S S S S   S  S  S  S   S  S  S
|--------------------------------|-----------------------------------------------|
|-10p8-8-8-8--(8)----------------|-----------------------------------------------|
|--------------------------------|-10p=8--8--8--8s7-7-7-7------------------------|
|-----------------8-8-8h10p8-8-8-|------------------------h10-10-10-10p==8--8--8-|
|--------------------------------|-----------------------------------------------|
|--------------------------------|-----------------------------------------------|
|
|          ~
|  S S S S Q  +S  S S S  S S S S    S  S  S  S  S S S S S   S  S  S  S   S  S  S
|--------------------------------|-----------------------------------------------|
|--------------------------------|-----------------------------------------------|
|--------------------------------|-----------------------------------------------|
|-10p8-8-8-8--(8)----------------|-12p10-10-10-10s8-8-8-8s==7--7--7--7-----------|
|-----------------5-5-5h=6p5-5-5-|-------------------------------------h10-10-10-|
|--------------------------------|-----------------------------------------------|


 1.
                                        2/4
   S S S S S   S  S  S  S  +S  S S Q     +S  S S S  S S S S
|-------------------------------------||-----------------------||
|-------------------------------------||----------------------o||
|-------------------------------------||-----------------------||
|--8s7-7-7-7--------------------------||-----8-8-8h10p8-8-8----||
|------------h10-10-10-10-(10)S5-5-5--||-(5)------------------o||
|------------------------------3-3-3--||-(3)-------------------||
|
|  S S S S S   S  S  S  S  +S  S S Q     +S  S S S  S S S S
|-------------------------------------||-----------------------||
|-------------------------------------||----------------------o||
|-------------------------------------||-----------------------||
|-------------------------------------||-----------------------||
|-10s9-9-9-9s=10-10-10-10-(10)S5-5-5--||-(5)-5-5-5h=6p5-5-5---o||
|------------------------------3-3-3--||-(3)-------------------||


  2.
 4/4                                                 2/4
   S S S S S   S  S  S  S  +S  S S Q    +W            +H
|-------------------------------------|------------||--------|
|-------------------------------------|------------||--------|
|-------------------------------------|------------||--------|
|--8s7-7-7-7--------------------------|------------||--------|
|------------h10-10-10-10-(10)S5-5-5--|-(5)--------||-(5)----|
|------------------------------3-3-3--|-(3)--------||-(3)----|
|
|  S S S S S   S  S  S  S  +S  S S Q    +W            +H
|-------------------------------------|------------||--------|
|-------------------------------------|------------||--------|
|-------------------------------------|------------||--------|
|-------------------------------------|------------||--------|
|-10s9-9-9-9s=10-10-10-10-(10)S5-5-5--|-(5)--------||-(5)----|
|------------------------------3-3-3--|-(3)--------||-(3)----|


    Q=136
   4/4
    Gtrs I, II
    PM--|     PM      PM|     PM    PM--|     PM      PM|     PM
    S S S S S S S S S S S S S S E   S S S S S S S S S S S S S S E
||--------------------------------|-------------------------------|
||o-------------------------------|-------------------------------|
||--------------------------------|-------------------------------|
||------------------5-------------|-----------------6-------------|
||o-----------------------------5-|-----------------------------6-|
||--3-3-3-5p3-3-5p3---3-3-5p3-3---|-4-4-4-6p4-4-6p4---4-4-6p4-4---|


  PM--|     PM      PM|     PM    PM--|     PM  PM--|     PM
  S S S S S S S S S S S S S S E   S S S S S S E S S S S S S E  4x
|-------------------------------|------------------------------||
|-------------------------------|-----------------------------o||
|-------------------------------|------------------------------||
|-----------------5-------------|-------------8-------------7--||
|-----------------------------5-|-6-6-6-8p6-6---5-5-5-7p5-5---o||
|-3-3-3-5p3-3-5p3---3-3-5p3-3---|------------------------------||


 2/4             2/4
  Gtr I
          PM
  S +S  E E e     S   E  E. e   S  E  E. e
|-------------||--------------|------------|
|-------------||o-------------|------------|
|-------------||--------------|------------|
|-------------||--------------|------------|
|-3-(3)s5-----||o-------------|------------|
|-1-(1)s3-1-1-||--1s==3--3--3-|-3s=6--6--6-|
|
| Gtr II
|         PM
| S +S  E E e     S   E  E. e   S  E  E. e
|-------------||--------------|------------|
|-------------||o-------------|------------|
|-------------||--------------|------------|
|-----------8-||--8-----------|------------|
|-3-(3)s5-----||o---h10-10--8-|-8s10-10--5-|
|-1-(1)s3-1---||--------------|------------|


  S E E. e   S  E  E. e   S  E  E. e
|----------|------------|------------|
|----------|------------|------------|
|----------|------------|------------|
|----------|------------|------------|
|----------|----------8-|-8s10-10----|
|-6s8-8--8-|-8s10-10----|----------1-|
|
| S E E. e   S  E  E. e   S  E  E. e
|----------|------------|------------|
|----------|------------|------------|
|----------|------------|------------|
|----------|------------|----------8-|
|-5s6-6--3-|-3s=5--5--6-|-6s=5--5----|
|----------|----------4-|-4s=3--3----|


  S   E  E. e   S  E  E. e   S E E. e
|-------------|------------|----------|
|-------------|------------|----------|
|-------------|------------|----------|
|-------------|------------|----------|
|-------------|------------|----------|
|-1s==3--3--3-|-3s=6--6--6-|-6s8-8--8-|
|
| S   E  E. e   S  E  E. e   S E E. e
|-------------|------------|----------|
|-------------|------------|----------|
|-------------|------------|----------|
|-8-----------|------------|----------|
|---h10-10--8-|-8s10-10--5-|-5s6-6--3-|
|-------------|------------|----------|


  1.                           2.
  S  E  E. e   S   E  E. e     S  E  E. E
|------------|--------------||------------|
|------------|-------------o||------------|
|------------|--------------||------------|
|----------8-|-8------------||----------8-|
|------------|---h10-10----o||------------|
|-8s10-10----|-----------1--||-8s10-10----|
|
| S  E  E. e   S   E  E. e     S  E  E. E
|------------|--------------||------------|
|------------|-------------o||------------|
|------------|--------------||------------|
|------------|-----------8--||------------|
|-3s=5--5--6-|-6s==5--5----o||-3s=5--5----|
|----------4-|-4s==3--3--1--||----------6-|


   4/4
    Gtrs I, II
    PM--|     PM      PM|     PM    PM--|     PM      PM|     PM
    S S S S S S S S S S S S S S E   S S S S S S S S S S S S S S E  3x
||--------------------------------|--------------------------------||
||o-------------------------------|-------------------------------o||
||--------------------------------|--------------------------------||
||------------------5-------------|-----------------6--------------||
||o-----------------------------5-|-----------------------------6-o||
||--3-3-3-5p3-3-5p3---3-3-5p3-3---|-4-4-4-6p4-4-6p4---4-4-6p4-4----||


  PM--|     PM      PM|     PM    PM--|     PM  PM--|     PM
  S S S S S S S S S S S S S S E   S S S S S S E S S S S S S E
|-------------------------------|-----------------------------|
|-------------------------------|-----------------------------|
|-------------------------------|-----------------------------|
|-----------------5-------------|-------------8-------------7-|
|-----------------------------5-|-6-6-6-8p6-6---5-5-5-7p5-5---|
|-3-3-3-5p3-3-5p3---3-3-5p3-3---|-----------------------------|


 2/4
  Gtr I
          PM
  S +S  E E e     S   E  E. e   S  E  E. e
|-------------||--------------|------------|
|-------------||o-------------|------------|
|-------------||--------------|------------|
|-------------||--------------|------------|
|-3-(3)s5-----||o-------------|------------|
|-1-(1)s3-1-1-||--1s==3--3--3-|-3s=6--6--6-|
|
| Gtr II
|         PM
| S +S  E E e     S   E  E. e   S  E  E. e
|-------------||--------------|------------|
|-------------||o-------------|------------|
|-------------||--------------|------------|
|-----------8-||--8-----------|------------|
|-3-(3)s5-----||o---h10-10--8-|-8s10-10--5-|
|-1-(1)s3-1---||--------------|------------|


  S E E. e   S  E  E. e   S  E  E. e
|----------|------------|-------------|
|----------|------------|-------------|
|----------|------------|-------------|
|----------|------------|-------------|
|----------|----------8-|-8s10-10-----|
|-6s8-8--8-|-8s10-10----|----------1--|
|
| S E E. e   S  E  E. e   S  E  E. e
|----------|------------|-------------|
|----------|------------|-------------|
|----------|------------|-------------|
|----------|------------|----------8--|
|-5s6-6--3-|-3s=5--5--6-|-6s=5--5-----|
|----------|----------4-|-4s=3--3-----|


  S   E  E. e   S  E  E. e   S E E. e
|-------------|------------|----------|
|-------------|------------|----------|
|-------------|------------|----------|
|-------------|------------|----------|
|-------------|------------|----------|
|-1s==3--3--3-|-3s=6--6--6-|-6s8-8--8-|
|
| S   E  E. e   S  E  E. e   S E E. e
|-------------|------------|----------|
|-------------|------------|----------|
|-------------|------------|----------|
|-8-----------|------------|----------|
|---h10-10--8-|-8s10-10--5-|-5s6-6--3-|
|-------------|------------|----------|


 1.                            2.
  S  E  E. e   S   E  E. e     S  E  E. E
|------------|--------------||------------|
|------------|-------------o||------------|
|------------|--------------||------------|
|----------8-|-8------------||----------8-|
|------------|---h10-10----o||------------|
|-8s10-10----|-----------1--||-8s10-10----|
|
| S  E  E. e   S   E  E. e     S  E  E. E
|------------|--------------||------------|
|------------|-------------o||------------|
|------------|--------------||------------|
|------------|-----------8--||------------|
|-3s=5--5--6-|-6s==5--5----o||-3s=5--5----|
|----------4-|-4s==3--3--1--||----------6-|


  Q=160
 4/4           2/4    4/4
   q  H.        H      Q  S S S S S S S S S S S     +S
|-------------|------|----3p0---------------------------|
|-------------|------|--------3-------------------------|
|-------------|------|----------4-2p0-------------------|
|-------------|------|----------------2p0---------------|
|-10----------|------|--------------------2p0-----------|
|-------------|------|------------------------3b3.5-(3)-|
|
|  q  H.        H      Q  S S S S S S S S S S S     +S
|-------------|------|----3p0---------------------------|
|-------------|------|--------3-------------------------|
|-------------|------|----------4-2p0-------------------|
|-------------|------|----------------2p0---------------|
|-------------|------|--------------------2p0-----------|
|--3----------|------|------------------------3b3.5-(3)-|


  Gtrs I, II
   E  S   S   S  S E E     S     S  S     S  E
|-----------------------------------------------|
|-----------------------------------------------|
|-----------------------------------------------|
|-----------------------------------------------|
|-----------------------------------------------|
|--0--0---0---3--0-0-0-----0-----0--3-----0--0--|
|
| Gtr III
|  E +S   S  +Q      E    +E       +E       +E
|-----------------------------------------------|
|--------12-(12)--------------------------------|
|-/9-(9)-------------9b12r(9)b12r==(9)b12r==(9)-|
|-----------------------------------------------|
|-----------------------------------------------|
|-----------------------------------------------|


    E   S   S   S  S  E  E      E       Q
|----------------------------------------------|
|----------------------------------------------|
|----------------------------------------------|
|---------------------------------------5------|
|-------3---2---3--2-----2---------------------|
|---0-----------------3---------4--------------|
|
|   E  +S   S  +E     E  E     +E      +E   E
|----------19-(19)---15------------------------|
|-/17-(17)--------------17b20r(17)b20r(17)-15\-|
|-------------------------------------------0--|
|----------------------------------------------|
|----------------------------------------------|
|----------------------------------------------|


   E          S   S  S S E      E     S   S   S    S   E
|-------------------------------------------------------------|
|-------------------------------------------------------------|
|-------------------------------------------------------------|
|-------------------------------------------------------------|
|-------------------------------------------------------------|
|--0----------0---0--3-0-0------0-----0---0---3----0---0------|
|
|                        |-3-|  |-----------10:8------------|
|  S      +E     +S  S S S S S  S S S   S   S S  S   S    S S
|--------------------------7h8h11p8p7---8p==7-8h11p==8h==11p8p|
|-10b12==(10)r==(10)-8p7h8------------------------------------|
|-------------------------------------------------------------|
|-------------------------------------------------------------|
|-------------------------------------------------------------|
|-------------------------------------------------------------|


  E    S S  S S E       E      E      Q
|-------------------------------------------------|
|-------------------------------------------------|
|-------------------------------------------------|
|-------------------------------------4-----------|
|------3-2--3-2---------2-------------------------|
|-0-------------3--------------3------------------|
|
| S  S S S  S S S S    +E     +E     +E     +E
|-7-----------------------------------------------|
|---10p8p7----8p7---------------------------------|
|----------h9-----9b11r(9)b12r(9)b11r(9)b11r(9)\--|
|-------------------------------------------------|
|-------------------------------------------------|
|-------------------------------------------------|


   E   S    S   S S E   E    S   S S S E
|------------------------------------------|
|------------------------------------------|
|------------------------------------------|
|------------------------------------------|
|------------------------------------------|
|--0---0----0---3-0-0---0----0---0-3-0-0---|
|
|  S S T  T T T S S S.T S  S E     S S S S
|------7-11p8p7-8p7------------------------|
|-/7-8--------------8p7h8h10-7b8r==========|
|----------------------------------9p7-----|
|--------------------------------------9p7-|
|------------------------------------------|
|------------------------------------------|


  E      S    S   S    S   E           E    E      Q
|------------------------------------------------------------|
|------------------------------------------------------------|
|------------------------------------------------------------|
|--------------------------------------------------5---------|
|--------3----2---3----2---------------2---------------------|
|-0------------------------3----------------4----------------|
|
|                                                         ~~~
| |-3--| |--3---| |--3---| |---3---|
| S  S S S  S   S S  S   S S  S   +S   E   +E     +E     +E
|------------------------------------------------------------|
|------------------------------------------------------------|
|------------------------------------------------------------|
|-9h10p9p7---------------------------------------------------|
|----------10p==9p7--------------------7b9r(7)b10r(7)b10r(7)-|
|-------------------10p==8p7-<5>-(<5>)-----------------------|


  E   S S S   S   E     E     S   S   S   S   E
|---------------------------------------------------|
|---------------------------------------------------|
|---------------------------------------------------|
|---------------------------------------------------|
|---------------------------------------------------|
|-0---0-0-3---0---0-----0-----0---0---3---0---0-----|
|
| PM-------------------------------------------------
|         |--3--| |-3-| |-3-| |--3--| |--3--| |-3-|
| S S S S S S   S S S S S S S S S   S S S   S S S S
|---------------5-------------5---------------------|
|-8-7-5-7-5-7-----8-7-5-5-7-8---8---7-8-7---5-------|
|---------------------------------------------7-5-4-|
|---------------------------------------------------|
|---------------------------------------------------|
|---------------------------------------------------|


  E   S S S S E E    E    Q
|--------------------------------|
|--------------------------------|
|--------------------------------|
|-------------------------4------|
|-----3-2-3-2---2----------------|
|-0-----------3------3-----------|
|
|---|
| S S S S E   E E   +E    E   E
|--------------------------------|
|--------------------------------|
|-7-5-----------5b7r(5)b7r5b7r5\-|
|-----7-5-----4------------------|
|---------7----------------------|
|--------------------------------|


  E   S S S S E   E   S S S S E
|---------------------------------|
|---------------------------------|
|---------------------------------|
|---------------------------------|
|---------------------------------|
|-1---1-1-4-1-1---1---1-1-4-1-1---|
|
| Gtr IV
| PM----|   PM----------|   PM-----
| S S S S S S S S S S S S S S S S
|---------------------------------|
|---------------------------------|
|---------------------------------|
|-------------------------3-------|
|---------3-------5-3-5-6---6-3-5-|
|-5-3-5-6---6-3-5-----------------|


  E   S S S S E   E   E    Q
|---------------------------------------------|
|---------------------------------------------|
|---------------------------------------------|
|--------------------------6------------------|
|-----4-3-4-3-----3---------------------------|
|-1-----------5-------4-----------------------|
|
|-------|   PM--|
| S S S S S S S S S S S S +S    +S  +S    +S
|---------------------------------------------|
|---------------------------------------------|
|---------3-------3-5-3-5-(5)b8r(5)-(5)b8r(5)-|
|-3-5-3-5---6-3-5-----------------------------|
|---------------------------------------------|
|---------------------------------------------|

[ Tab from: http://www.guitaretab.com/t/tourniquet/113985.html ]
  E   S S S S E   E   S S   S S E
|-----------------------------------|
|-----------------------------------|
|-----------------------------------|
|-----------------------------------|
|-----------------------------------|
|-1---1-1-4-1-1---1---1-1---4-1-1---|
|
|   PM--|   PM----------|     PM-----
| S S S S S S S S S S S S a S S S S
|-------------------------4s3-------|
|---------4-------6-5-6-5-----6-5-6-|
|---3-4-5---5-4-5-------------------|
|-----------------------------------|
|-----------------------------------|
|-----------------------------------|


  E   S  S S S E     E    E      Q
|---------------------------------------------|
|---------------------------------------------|
|---------------------------------------------|
|--------------------------------5------------|
|-----4--3-4-3-------3------------------------|
|-1------------5----------4-------------------|
|
|-|
| S S S  S S S T T S S  S S   S  S     +S  E
|---6s9-12-9p7h9p8p7h8------------------------|
|-8--------------------10p9-------------------|
|---------------------------h12-11b13r(11)----|
|---------------------------------------------|
|---------------------------------------------|
|---------------------------------------------|


  E     S   S S S E     E   S   S   S    S E
|----------------------------------------------|
|----------------------------------------------|
|----------------------------------------------|
|----------------------------------------------|
|----------------------------------------------|
|-1-----1---1-4-1-1-----1---1---1---4----1-1---|
|
|                 |-3-|
| E    +E     S S S S S S S T T T T E      S S
|-7b9==(7)rp==5---8-9p8h9p8-7p5p4--------------|
|---------------7-----------------7-7b10---8p6p|
|----------------------------------------------|
|----------------------------------------------|
|----------------------------------------------|
|----------------------------------------------|


  E     S   S   S S E        E       E      Q
|---------------------------------------------------|
|---------------------------------------------------|
|---------------------------------------------------|
|-------------------------------------------6-------|
|-------4---3---4-3----------3----------------------|
|-1-----------------5----------------4--------------|
|
| |-3-|
| S S S S.    T S S S S     +E      +E     +E  S S
|---------------------------------------------------|
|-4-------------------------------------------------|
|---5---5b6---5p3------------------------------6-0--|
|-----------------6p5-------------------------------|
|---------------------8b11r([8])b11r(8)b10r(8)------|
|---------------------------------------------------|


  E    S     S  S    S  E      E     S S  S    S E
|----------------------------------------------------|
|----------------------------------------------------|
|----------------------------------------------------|
|----------------------------------------------------|
|----------------------------------------------------|
|-1----1-----1--4----1--1------1-----1-1--4----1-1---|
|
| E   +T  T  S  E      +T  T S S T T S S +T  T S S S
|-7b9r(7)p5------------------------------------------|
|-----------h7-[7]b9r==(7)p6---7---------------------|
|----------------------------8---7p6---7-(7)p6-------|
|------------------------------------9---------9-7-9-|
|----------------------------------------------------|
|----------------------------------------------------|


  E   S   S S S E   E     E      Q
|-------------------------------------------|
|-------------------------------------------|
|-------------------------------------------|
|--------------------------------5----------|
|-----4---3-4-3-----3-----------------------|
|-1-------------5---------4-----------------|
|
| S S T T S S S S S E    +E     +E     +E
|-------------------------------------------|
|-------------------------------------------|
|-6-7-9p7p6-7-6-----------------------------|
|---------------9-6-------------------------|
|-------------------9b12r(9)b12r(9)b12r(9)\-|
|-------------------------------------------|


    Q=155
    Gtr I
                               ~~                                   ~~
  S S S S  S S S S S  S  S  S  Q     +S  S S S  S S S S S  S  S  S  Q
|---------------------------------|------------------------------------|
|---------------------------------|------------------------------------|
|---------------------------------|------------------------------------|
|---8-8-8h10p8-8-8----------------|------8-8-8h10p8-8-8----------------|
|------------------8h10-10-10-10--|-(10)-------------------------------|
|---------------------------------|---------------------8h10-10-10-10--|
|
|   Gtr II
|                              ~~                                   ~~
| S S S S  S S S S S  S  S  S  Q     +S  S S S  S S S S S  S  S  S  Q
|---------------------------------|------------------------------------|
|---------------------------------|------------------------------------|
|---------------------------------|------------------------------------|
|---------------------------------|------------------------------------|
|---5-5-5h=6p5-5-5-0h=1--1--1--1--|--(1)-5-5-5h=6p5-5-5----------------|
|---------------------------------|---------------------1h=3--3--3--3--|


                                   ~~                                ~
   +S  S S S  S S S S  S  S  S  S  Q     +S  S S S  S S S S  S S S S Q
|-------------------------------------|---------------------------------|
|-------------------------------------|---------------------10p8-8-8-8--|
|---------------------12p11-11-11-11--|-(11)----------------------------|
|------8-8-8h10p8-8-8-----------------|------8-8-8h10p8-8-8-------------|
|-------------------------------------|---------------------------------|
|-(10)--------------------------------|---------------------------------|
|
|                                  ~~                                ~
|  +S  S S S  S S S S  S  S  S  S  Q     +S  S S S  S S S S  S S S S Q
|-------------------------------------|---------------------------------|
|-------------------------------------|---------------------------------|
|-------------------------------------|---------------------------------|
|----------------------8p=7--7--7--7--|--(7)----------------10p8-8-8-8--|
|------5-5-5h=6p5-5-5-----------------|------5-5-5h=6p5-5-5-------------|
|--(3)--------------------------------|---------------------------------|


  +S  S S S  S S S S  S  S  S  S  S S S S
|-----------------------------------------|
|-(8)-------------------------------------|
|--------------------10p=8--8--8--8s7-7-7-|
|-----8-8-8h10p8-8-8----------------------|
|-----------------------------------------|
|-----------------------------------------|
|
| +S  S S S  S S S S  S  S  S  S  S S S S
|-----------------------------------------|
|-----------------------------------------|
|-----------------------------------------|
|-(8)----------------12p10-10-10-10s8-8-8-|
|-----5-5-5h=6p5-5-5----------------------|
|-----------------------------------------|


  S   S  S  S  S   S  S  S  S S S S S   S  S  S    S  +S  S S Q  +H       +W
|-----------------------------------------------|-----------------------|--------|
|-----------------------------------------------|-----------------------|--------|
|-7---------------------------------------------|-----------------------|--------|
|---h10-10-10-10p==8--8--8--8s7-7-7-7-----------|-----------------------|--------|
|-------------------------------------h10-10-10-|-10-(10)S5-5-5--(5)----|-(5)----|
|-----------------------------------------------|---------3-3-3--(3)----|-(3)----|
|
| S   S  S  S  S   S  S  S  S S S S S   S  S  S    S  +S  S S Q  +H       +W
|-----------------------------------------------|-----------------------|--------|
|-----------------------------------------------|-----------------------|--------|
|-----------------------------------------------|-----------------------|--------|
|-8s==7--7--7--7--------------------------------|-----------------------|--------|
|----------------h10-10-10-10s9-9-9-9s=10-10-10-|-10-(10)S5-5-5--(5)----|-(5)----|
|-----------------------------------------------|---------3-3-3--(3)----|-(3)----|


    Q=136
    Gtrs I, II
    PM--|     PM      PM|     PM    PM--|     PM      PM|     PM
    S S S S S S S S S S S S S S E   S S S S S S S S S S S S S S E
||--------------------------------|-------------------------------|
||o-------------------------------|-------------------------------|
||--------------------------------|-------------------------------|
||------------------5-------------|-----------------6-------------|
||o-----------------------------5-|-----------------------------6-|
||--3-3-3-5p3-3-5p3---3-3-5p3-3---|-4-4-4-6p4-4-6p4---4-4-6p4-4---|


  PM--|     PM      PM|     PM    PM--|     PM  PM--|     PM
  S S S S S S S S S S S S S S E   S S S S S S E S S S S S S E
|-------------------------------|--------------------------------||
|-------------------------------|-------------------------------o||
|-------------------------------|--------------------------------||
|-----------------5-------------|-------------8-------------7----||
|-----------------------------5-|-6-6-6-8p6-6---5-5-5-7p5-5-----o||
|-3-3-3-5p3-3-5p3---3-3-5p3-3---|--------------------------------||


  $
 2/4
  Gtr I
          PM
  S +S  E E e     S   E  E. e   S  E  E. e
|-------------||--------------|------------|
|-------------||o-------------|------------|
|-------------||--------------|------------|
|-------------||--------------|------------|
|-3-(3)s5-----||o-------------|------------|
|-1-(1)s3-1-1-||--1s==3--3--3-|-3s=6--6--6-|
|
| Gtr II
|         PM
| S +S  E E e     S   E  E. e   S  E  E. e
|-------------||--------------|------------|
|-------------||o-------------|------------|
|-------------||--------------|------------|
|-----------8-||--8-----------|------------|
|-3-(3)s5-----||o---h10-10--8-|-8s10-10--5-|
|-1-(1)s3-1---||--------------|------------|


  S E E. e   S  E  E. e   S  E  E. e
|----------|------------|-------------|
|----------|------------|-------------|
|----------|------------|-------------|
|----------|------------|-------------|
|----------|----------8-|-8s10-10-----|
|-6s8-8--8-|-8s10-10----|----------1--|
|
| S E E. e   S  E  E. e   S  E  E. e
|----------|------------|-------------|
|----------|------------|-------------|
|----------|------------|-------------|
|----------|------------|----------8--|
|-5s6-6--3-|-3s=5--5--6-|-6s=5--5-----|
|----------|----------4-|-4s=3--3-----|


  S   E  E. e   S  E  E. e   S E E. e
|-------------|------------|----------|
|-------------|------------|----------|
|-------------|------------|----------|
|-------------|------------|----------|
|-------------|------------|----------|
|-1s==3--3--3-|-3s=6--6--6-|-6s8-8--8-|
|
| S   E  E. e   S  E  E. e   S E E. e
|-------------|------------|----------|
|-------------|------------|----------|
|-------------|------------|----------|
|-8-----------|------------|----------|
|---h10-10--8-|-8s10-10--5-|-5s6-6--3-|
|-------------|------------|----------|


 1.                            2.
                              D.S. aTo Coda
  S  E  E. e   S   E  E. e     S  E  E. E
|------------|--------------||---------------|
|------------|-------------o||---------------|
|------------|--------------||---------------|
|----------8-|-8------------||----------8----|
|------------|---h10-10----o||---------------|
|-8s10-10----|-----------1--||-8s10-10-------|
|
| S  E  E. e   S   E  E. e     S  E  E. E
|------------|--------------||---------------|
|------------|-------------o||---------------|
|------------|--------------||---------------|
|------------|-----------8--||---------------|
|-3s=5--5--6-|-6s==5--5----o||-3s=5--5-------|
|----------4-|-4s==3--3--1--||----------6----|


    Q=140
    &
    Gtrs I, II
    E. S S S S S   a e. S S S S S   a e. S S S S S
||---------------|----------------|----------------|
||o--------------|----------------|----------------|
||---------------|----------------|----------------|
||---------------|----------------|----------------|
||o--------------|------7-7-7-6-6-|-6s9--5-5-5-4-4-|
||--0--3-3-3-2-2-|-2s7------------|----------------|


  a e. S S S S S   a e. S S S S S
|----------------|-----------------||
|----------------|----------------o||
|----------------|-----------------||
|----------------|-----------------||
|-4s7--3-3-3-2-2-|-2s7------------o||
|----------------|------3-3-0-2-0--||


    Gtr I
    E. S S S S S   a e. S S S S S   a e. S S S S S
||---------------|----------------|----------------|
||o--------------|----------------|----------------|
||---------------|----------------|----------------|
||---------------|----------------|----------------|
||o--------------|-5s7------------|----------------|
||--0--7-7-7-5-5-|------7-7-7-5-5-|-5s8--5-5-5-3-3-|
|
|   Gtr II
|   E. S S S S S   a e. S S S S S   a e. S S S S S
||---------------|----------------|----------------|
||o--------------|----------------|----------------|
||---------------|----------------|----------------|
||---------------|----------------|----------------|
||o--------------|------7-7-7-6-6-|-6s9--5-5-5-4-4-|
||--0--3-3-3-2-2-|-2s7------------|----------------|


  a e. S S S S S   a e. S S S S S
|----------------|-----------------||
|----------------|----------------o||
|----------------|-----------------||
|----------------|-----------------||
|----------------|----------------o||
|-3s7--3-3-3-2-2-|-2s5--3-3-0-2-0--||
|
| a e. S S S S S   a e. S S S S S
|----------------|-----------------||
|----------------|----------------o||
|----------------|-----------------||
|----------------|-----------------||
|-4s7--3-3-3-2-2-|-2s7------------o||
|----------------|------3-3-0-2-0--||


    Gtr I
    E. S S S S S   a e. S S S S S   a  e. S S S S S
||---------------|----------------|-----------------|
||o--------------|----------------|-----------------|
||---------------|----------------|-----------------|
||---------------|----------------|-----------------|
||o--------------|-5s7------------|-----------------|
||--0--7-7-7-5-5-|------7-7-7-5-5-|-5s=8--5-5-5-3-3-|
|
|   Gtr II
|   E. S S S S S   a e. S S S S S   a  e. S S S S S
||---------------|----------------|-----------------|
||o--------------|----------------|-----------------|
||---------------|----------------|-----------------|
||---------------|----------------|-----------------|
||o--------------|------7-7-7-6-6-|-6s=9--5-5-5-4-4-|
||--0--3-3-3-2-2-|-2s7------------|-----------------|
|
|   Gtr III
|   e. S S S S S   a e. S S S S S   a  e. S S S S S
||---------------|----------------|-----------------|
||o--------------|----------------|-----------------|
||---------------|-7s9------------|-----------------|
||-----9-9-9-7-7-|------9-9-9-7-7-|-7s10--7-7-7-5-5-|
||o--------------|----------------|-----------------|
||--0------------|----------------|-----------------|


  a e. S S S S S   a e. S S S S S
|----------------|-----------------||
|----------------|----------------o||
|----------------|-----------------||
|----------------|-----------------||
|----------------|----------------o||
|-3s7--3-3-3-2-2-|-2s5--3-3-0-2-0--||
|
| a e. S S S S S   a e. S S S S S
|----------------|-----------------||
|----------------|----------------o||
|----------------|-----------------||
|----------------|-----------------||
|-4s7--3-3-3-2-2-|-2s7------------o||
|----------------|------3-3-0-2-0--||
|
| a e. S S S S S   a e. S S S S S
|----------------|-----------------||
|----------------|----------------o||
|----------------|-----------------||
|-5s9--5-5-5-4-4-|-4s7-------------||
|----------------|----------------o||
|----------------|------3-3-0-2-0--||


    Gtrs I, II
    E. S S S S S   a e. S S S S S   a e. S S S S S
||---------------|----------------|----------------|
||o--------------|----------------|----------------|
||---------------|----------------|----------------|
||---------------|----------------|----------------|
||o--------------|------7-7-7-6-6-|-6s9--5-5-5-4-4-|
||--0--3-3-3-2-2-|-2s7------------|----------------|


  a e. S S S S S   a e. S S S S S
|----------------|-----------------||
|----------------|----------------o||
|----------------|-----------------||
|----------------|-----------------||
|-4s7--3-3-3-2-2-|-2s7------------o||
|----------------|------3-3-0-2-0--||


    Gtr I
    E. S S S S S   a e. S S S S S   a e. S S S S S
||---------------|----------------|----------------|
||o--------------|----------------|----------------|
||---------------|----------------|----------------|
||---------------|----------------|----------------|
||o--------------|-5s7------------|----------------|
||--0--7-7-7-5-5-|------7-7-7-5-5-|-5s8--5-5-5-3-3-|
|
|   Gtr II
|   E. S S S S S   a e. S S S S S   a e. S S S S S
||---------------|----------------|----------------|
||o--------------|----------------|----------------|
||---------------|----------------|----------------|
||---------------|----------------|----------------|
||o--------------|------7-7-7-6-6-|-6s9--5-5-5-4-4-|
||--0--3-3-3-2-2-|-2s7------------|----------------|


  a e. S S S S S   a e. S S S S S
|----------------|-----------------||
|----------------|----------------o||
|----------------|-----------------||
|----------------|-----------------||
|----------------|----------------o||
|-3s7--3-3-3-2-2-|-2s5--3-3-0-2-0--||
|
| a e. S S S S S   a e. S S S S S
|----------------|-----------------||
|----------------|----------------o||
|----------------|-----------------||
|----------------|-----------------||
|-4s7--3-3-3-2-2-|-2s7------------o||
|----------------|------3-3-0-2-0--||


    Gtr I
    E. S S S S S   a e. S S S S S   a  e. S S S S S
||---------------|----------------|-----------------|
||o--------------|----------------|-----------------|
||---------------|----------------|-----------------|
||---------------|----------------|-----------------|
||o--------------|-5s7------------|-----------------|
||--0--7-7-7-5-5-|------7-7-7-5-5-|-5s=8--5-5-5-3-3-|
|
|   Gtr II
|   E. S S S S S   a e. S S S S S   a  e. S S S S S
||---------------|----------------|-----------------|
||o--------------|----------------|-----------------|
||---------------|----------------|-----------------|
||---------------|----------------|-----------------|
||o--------------|------7-7-7-6-6-|-6s=9--5-5-5-4-4-|
||--0--3-3-3-2-2-|-2s7------------|-----------------|
|
|   Gtr III
|   e. S S S S S   a e. S S S S S   a  e. S S S S S
||---------------|----------------|-----------------|
||o--------------|----------------|-----------------|
||---------------|------9-9-9-8-8-|-8s11--7-7-7-6-6-|
||-----5-5-5-4-4-|-4s9------------|-----------------|
||o--------------|----------------|-----------------|
||--0------------|----------------|-----------------|


  a e. S S S S S   a e. S S S S S
|----------------|-----------------||
|----------------|----------------o||
|----------------|-----------------||
|----------------|-----------------||
|----------------|----------------o||
|-3s7--3-3-3-2-2-|-2s5--3-3-0-2-0--||
|
| a e. S S S S S   a e. S S S S S
|----------------|-----------------||
|----------------|----------------o||
|----------------|-----------------||
|----------------|-----------------||
|-4s7--3-3-3-2-2-|-2s7------------o||
|----------------|------3-3-0-2-0--||
|
| a e. S S S S S   a e. S S S S S
|----------------|-----------------||
|----------------|----------------o||
|-6s9--5-5-5-4-4-|-4s9-------------||
|----------------|-----------------||
|----------------|----------------o||
|----------------|------3-3-0-2-0--||


  Gtrs I, II, III
  Q  Q
|---------*|
|---------*|
|---------*|
|---------*|
|-2-------*|
|-0-------*|



Duration Legend
---------------
W - whole; H - half; Q - quarter; E - 8th; S - 16th; T - 32nd; X - 64th; a - acciaccatura
+ - note tied to previous; . - note dotted; .. - note double dotted
Uncapitalized letters represent notes that are staccato (1/2 duration)
Irregular groupings are notated above the duration line
Duration letters will always appear directly above the note/fret number it represents the
duration for.  Duration letters with no fret number below them represent rests.  Multi-
bar rests are notated in the form Wxn, where n is the number of bars to rest for.  Low
melody durations appear below the staff

Tablature Legend
----------------
 h   - hammer-on
 p   - pull-off
 b   - bend
 pb  - pre-bend
 r   - bend release (if no number after the r, then release immediately)
 /\  - slide into or out of (from/to "nowhere")
 s   - legato slide
 S   - shift slide
 - natural harmonic
[n]  - artificial harmonic
n(n) - tapped harmonic
 ~   - vibrato
 tr  - trill
 T   - tap
 TP  - trem. picking
 PM  - palm muting
\n/  - tremolo bar dip; n = amount to dip
 \n  - tremolo bar down
 n/  - tremolo bar up
/n\  - tremolo bar inverted dip
 =   - hold bend; also acts as connecting device for hammers/pulls
 <> - volume swell (louder/softer)
 x   - on rhythm slash represents muted slash
 o   - on rhythm slash represents single note slash

Misc Legend
-----------
 |  - bar
||  - double bar
||o - repeat start
o|| - repeat end
*|  - double bar (ending)
 :  - bar (freetime)
 $  - Segno
 &  - Coda
Tempo markers -  = BPM(8/16=s8/s16), where s8 = swing 8ths, s16 = swing 16ths

Related for Psychosurgery tab
Advertisement will be closed in 10 seconds