Song name
# A B C D E F G H I J K L M N O P Q R S T U V W X Y Z

Tourniquet - If Pigs Could Fly tab

(Intro)
eb-----0-----------------0-----------------3-----------------3-----------|
Bb----05----------------05----------------05----------------05-----------|
Gb-2/4---44/2-2p0----2/4---44/2-2p0----2/4---44/2-2p0----2/4---44/2-2p0--|
Db---------------2-----------------2-----------------2-----------------2-|
Ab-----------------------------------------------------------------------|
Eb-----------------------------------------------------------------------|

eb-------------------------------------| (x2)
Bb----5--------------------------------|
Gb-2/4--4/2p0----------0---------------|
Db-----------2/5-4--2/4-4/2p0----------|
Ab----------------5----------3h5p3-2-2-|
Eb-----------------------------------0-|

(!st Time)      (Verse)
eb---------|-----------------------------------------------------------------
Bb---------|-----------------------------------------------------------------
Gb---------|---------55------44------88--------------55------44-xxxx-6-------
Db-xxxx----|-22-xxxx-55-xxxx-55-xxxx-99-xxxx-22-xxxx-55-xxxx-55-xxxx-7----5p2
Ab-xxxx----|-22-xxxx-33-xxxx-55-xxxx-99-xxxx-22-xxxx-33-xxxx-55-xxxx-7-0h2---
Eb-xxxx-7/0|-00-xxxx-00-xxxx-33-xxxx-77-xxxx-00-xxxx-00-xxxx-33-xxxx-5-------

---------33------33------77------00------33------33------5-7-|
---------33------33------77------00------33------33------5-7-|
---------55------44------88------00------55------44------6-8-|
-22-xxxx-55-xxxx-55-xxxx-99-xxxx-22-xxxx-55-xxxx-55-xxxx-7-9-|
-22-xxxx-33-xxxx-55-xxxx-99-xxxx-22-xxxx-33-xxxx-55-xxxx-7-9-|
-00-xxxx----xxxx-33-xxxx-77-xxxx-00-xxxx----xxxx-33-xxxx-5-7-|

eb------------------------------| (Back To Verse)
Bb------------------------------|
Gb------------------------------|
Db--4--4---xxx--4--4------------|
Ab-22-22-2-xxx-22-22-2----------|
Eb-0--0--0-xxx-0--0--0--1-1/5-4-|

(Bridge)
eb-------------------------------------------------------------| (x2)
Bb---------88--------------77--------------88------------------|
Gb-44------88------77------77------44------88------77------5-7-|
Db-55-xxxx-88-xxxx-88-xxxx-77-xxxx-55-xxxx-88-xxxx-88-xxxx-5-7-|
Ab-55-xxxx-66-xxxx-88-xxxx-55-xxxx-55-xxxx-66-xxxx-88-xxxx-3-5-|
Eb-33-xxxx----xxxx-66-xxxx----xxxx-33-xxxx----xxxx-66-xxxx-----|

After this the verse is played with single notes sweeping down then up. 
This is all I have figured out, but it not wrong like others i've seen
Enjoy.
Tap to rate this tab
# A B C D E F G H I J K L M N O P Q R S T U V W X Y Z