Song name
# A B C D E F G H I J K L M N O P Q R S T U V W X Y Z

Tourniquet - Bearing Gruesome Cargo tab

  Song:Bearing Gruesome Cargo
  Band:Tourniquet
  CD:The Collected Works
  Copyright:c1996 Intense Records
  Tabbed by Ed Morones

    INTRO:Riff1 Play 2x's
  e--3p0------------3p0------------3p0------------3p0------------|
  B-----3p0------------3p0------------3p0------------3p0---------|
  G--------2p0------------2p0------------2p0------------2p0------|
  D--------------------------------------------------------------|
  A----------------------------------------/5-4-3----------3-5-2-|
  E-----------3-4-5----------3-5-0-----------------------------0-|


   VERSE:Riff 2 play 5x's hold E last time for chorus
  e--------------------------------------------------|
  B--------------------------------------------------|
  G--------------------------------------------------|
  D--2-2----2--------2-2----2---------------2-7-6-5--|
  A--2-2------5-6-7--2-2------5-7-2--2-2------5-4-3--|
  E--0-0-3p0--3-4-5--0-0-3p0--3-5-0--0-0-3p0---------|

  e------------------|
  B------------------|
  G------------------|
  D----------2-5-7-2-|
  A--2-2-------3-5-2-|
  E--0-0-3p0-------0-|


    Riff 3 Play 4x's after 2nd time Gtr.2 plays Riff 4 along.
  e--------------------------------sl.---------|
  B--------8-sl.--------------8--(5)/8-10------|
  G-----7h--9\-------------7h--9---------9-9-9-|
  D--7h9--9---2-2--2-2--7h9--9-----------------|
  A-----------2-2--2-2-------------------------|
  E-----------0-0--0-0-------------------------|



     Riff 4
  e--------------------------------------------|
  B--------------------------------------------|
  G----------sl.--------------------sl.--------|
  D--------5--2-2--2-2--------5--(2)/5-7-------|
  A-----5h--7\2-2--2-2-----5h--7---------7-7-7-|
  E--5h7--7---0-0--0-0--5h7--7-----------------|
   After this play riff 2 for 2nd verse.
   Then play Riffs 1&2 together 2x's for chorus.
   Then Riff 5.

     Riff 5
  e---------------------------------|Play 12x's
  B-----------------------------7---|Gtr.2 plays high notes
  G--------------------------7h9-9--|first 4 x's
  D-----------------------------5---|
  A--------------------------5h7-7--|
  E--0-0-3-0-4-0-5-0-6-0-7-0--------|
    After this play Riff 4 2x's.
    Then for solo rhythym plays Riff 5 8x's.
    After solo play Riff 2 4x's for final verse.

    Riff 6 Play 4x's
  e------------------|
  B------------------|
  G------------------|
  D----2---2---2---2-|
  A--5-2-7-2-5-2-3-2-|
  E--3-0-5-0---0---0-|
    After Riff 6 play Riff 5 8x's

     End song on E
  e----
  B----
  G----
  D--2-
  A--2-
  E--0-


  Do not archive without permission
  Any Q's or com's email Ed at
  5150rocker@sbcglobal.net
Tap to rate this tab
# A B C D E F G H I J K L M N O P Q R S T U V W X Y Z