Song name
# A B C D E F G H I J K L M N O P Q R S T U V W X Y Z

Tourniquet - Impending Embolism tab

  this is my first tab so if you have any questions,comments,or complaints email me at
               sgourd@cableone.net

                  thanks


e|-----------------------------------------------------------------------------|
B|----------------------------------------------------5-3-1-3-0-1-0-5-4-1-0----|
G|--------------4--------------------------------------------------------------|
D|-----2--4-5-2---------2--4-5-2-1--------2--4-5-2-----------------------------|
A|---2------------3-2-2------------3-2--2--------------------------------------|
E|-----------------------------------------------------------------------------|

e|------------------------------------------------------------------------------|
B|------------------------------------------------------------------------------|
G|------------4------------------------------------2-4-5-5--8-4-8-12-11-10-9----|
D|---2--4-5-2---------2--4-5-2-1--------2---4-5-2-------------------------------|
A|--2-----------3-2-2------------3-2--2-----------------------------------------|
E|------------------------------------------------------------------------------|
| /  slide up
| \  slide down
| h  hammer-on
| p  pull-off
| ~  vibrato
| +  harmonic
| x  Mute note
===============================================================================
Tap to rate this tab
# A B C D E F G H I J K L M N O P Q R S T U V W X Y Z