Song name
# A B C D E F G H I J K L M N O P Q R S T U V W X Y Z

Tourniquet - The Skeezix Dilemma tab

  Song:The Skeezix Dilemma
  Band:Tourniquet
  CD:The Collected Works Of Tourniquet
  Copyright:c1996 Intense Records
  Tabbed by Ed Morones
  **This is a hard tab to find,it is not complete but I think I've got
    most of it here.Will be working on solo and outro stuff soon**
    The intro is played by two gtrs.I tabbed just one the other is
    Just playing an octave higher.I added the chords that are played
    on the Acoustic Archive version.
    INTRO:Am          E           E
  e-----------------------------|-------------------------------|
  B------sl.--------------------|-------------------------------|
  G----2(4)/7-5-4-2-------------|-------------------------------|
  D---2------------4-2---2sl.---|----2(4)/7-5-4-2---------------|
  A--0------------------2-/7~~~~|---2------------4-2-0-----2-0--|
  E--------------------0--------|--0------------------4-0-4-----|


      Am               E          Dm       C         E
  e-----------------------------|----------------------------------|
  B-----------------------------|----------------------------------|
  G----2(4)/7-5-4-2-------------|----------------------------------|
  D---2------------4-2---2sl.---|----------------------------------|
  A--0------------------2-/7~~~~|-5-7-8-7-5-3-5-7-5-3-2-0------2-0-|
  E--------------------0--------|-------------------------4-0-4----|
    Play intro 2x's


    CIRCUS INTRO:

  e-----------------|
  B---9-9-----9-9---|gtr.1 plays this throughout
  G---7-7-----7-7---|
  D---0-0-----0-0---|
  A-----------------|
  E-----------------|


   gtr.2
e---------------------------------------------------------------------|
B-999-9-9-9-15~999-9-9-9-15\14-15-9~999-9-9-9-15~999-9-9-9-15\14-15-9~|
G-777-7-7-7-13~777-7-7-7-13\12-13-7~777-7-7-7-13~777-7-7-7-13\12-13-7~|
D-000-0-0-------------------------------------------------------------|
A---------------------------------------------------------------------|
E---------------------------------------------------------------------|




  e----------------------------sl.sl.---sl.----------------|
  B-9/11/12-12/11-11-9-11-15---9/11/12---12-11-12-15-14-9--|Play this
  G-7/-9/10-10/-9--9-7--9-13---7/-9/10---10--9-10-13-12-7--|2x's
  D--------------------------------------------------------|
  A--------------------------------------------------------|
  E--------------------------------------------------------|

  e--------------------------------------------------|
  B-999-9-9-9-15~999-9-9-9--15\14-15-9~~999-9-9-9-17-|
  G-777-7-7-7-13~777-7-7-7--13\12-13-7~~777-7-7-7-15-|
  D--------------------------------------------------|
  A--------------------------------------------------|
  E--------------------------------------------------|

    Silly childhood game uncle Wiggley I cower in abject horror approaching
    space number 109,Horne of the gaunt and haggard shell of the skeezix.


  e-------------------------------------------|
  B-------------------------------------------|
  G-------------------------------------------|
  D--2-------2-------2-------2----------------|
  A--2-------2-------2-------2----8~~7~~5~~3~~|
  E--0-------0-------0-------0----------------|


   VERSE:RIFF 1
  e------------------------------------------------------------------|
  B------------------------------------------------------------------|
  G------------------------------------------------------------------|
  D------------------------------------------------------------------|
  A------------------7-7-7-7-6-7-6---10-10-10-10-10-10-------9-9-9-9-|
  E--0-0-0-0-0-0-0-0---------------7-------------------10-10---------|

  e-------------------------------------------------------------------|
  B-------------------------------------------------------------------|
  G-------------------------------------------------------------------|
  D-------------------------------------------------------------------|
  A--9-9-9-9-----------------7-7-7-7-6-7-6---5-5-5-5-5-5-----4-4-4-4--|
  E----------0-0-0-0-0-0-0-0---------------7-------------6-6----------|




  A-4-4-4-4-|end Riff 1
  E---------|

      RIFF 2-gtr 1
  e|---------------------------------------------------------------|
  B|---------------------------------------------------------------|
  G|---------------------------------------------------------------|
  D|--2-2-5------2-0--3--2--5--4~~~~~~~~~~~~~~~~~~~~~~~~~~~~~~~~~~~|
  A|--2-------3--2-0--3--2--3--2~~~~~~~~~~~~~~~~~~~~~~~~~~~~~~~~~~~|
  E|--0-------1--0----1--0-----------------------------------------|
   |                                                               |
   |                                                               |
   |                                                               |
   |                                                               |
   |  RIFF 3-gtr 2                                                 |
  e|---------------------------------------------------------------|
  B|---------------------------------------------------------------|
  G|---------------------------------------------------------------|
  D|--9------10-9-7-10-9-------------------------------------------|
  A|--7-9/10--8-7-5--8-7~~~~10--9----------------------------------|
  E|--0----------------------8--7h8p7h8p7h8p7h8p7h8p7h8p7h8p7h8p7--|
      After playing RIFF 2&3 2x's play verse again then play RIFF2&3
      4x's.


    RIFF 4 played with SOLO:Something like this.Play as fast as possible.
  e----------------------------------------------------|
  B----------------------------------------------------|
  G----------------------------------------------------|
  D---------------------------12\10-10\9-9\8-8\7/8-9---|
  A---------------------------10\-8--8\7-7\6-6\5/6-7---|
  E--000000000000000000000000--------------------0-----|

    RIFF 4 is not all that accurate because I can't really hear what they
    are playing.If you know it any help is appreciated.

    RIFF 5:
  e------------------------------------|
  B--9--------9--------9---------------|
  G--9--------9--------9---------------|PLAY
  D--9--------9--------9-------5-4-3---|8x's
  A--7--------7--------7-------5-4-3---|
  E--0-00000--0-00000--0-00000-3-2-1---|




    PLAY RIFF 1 again and gtr 2 plays this.
  e----------------------------------------------------------------|
  B----------------------------------------------------------------|
  G----------------------------------------------------------------|
  D-----------------6-6-6-6-5-6-5---9-9-9-9-9-9----8-8-8-8-8-8-8-8-|
  A-------------------------------6------------9-9-----------------|
  E--0-0-0-0-0-0-0-0-----------------------------------------------|




  e---------------------------------------------------------------|
  B---------------------------------------------------------------|
  G---------------------------------------------------------------|
  D------------------6-6-6-6-5-6-5---4-4-4-4-----3-3-3-3-3-3-3-3--|
  A--------------------------------6---------5-5------------------|
  E--0-0-0-0-0-0-0-0----------------------------------------------|


   Well that is pretty much it.I'll be working on the outro portion of
   the song and maybe even the solos.If anyone
   could help I would appreciate it thanks.


  Any Q's or com's email Ed at
  5150rocker@sbcglobal.net
Tap to rate this tab
# A B C D E F G H I J K L M N O P Q R S T U V W X Y Z