Song name
# A B C D E F G H I J K L M N O P Q R S T U V W X Y Z

Tourniquet - Ark Of Suffering tab

                                 ARK OF SUFFERING
                             As recorded by Tourniquet
                       (From the 1990 Album STOP THE BLEEDING)

This Version is in the same tuning as on the CD. 
The only difference is that the Eb string is tuned 
a half step down, everything else is to standard. 
For reference listen to the cd. This is 100% right 
because once you learn it you will be able to play along!

    Intro
eb--|--------------|---------------|--------------|--------------|
Bb--|--------------|---------------|--------------|--------------|
Gb--|--------------|---------------|--------------|--------------|
Db--|--------------|---------------|--------------|--------------|
Ab--|--------------|---------------|--------------|-------1------|
Eb-0|-0-6-5-0-6-5-0|-5-3-0-3-2-0-6-|-5-0-6-5-0-5-3|-0-3-2-0------|
    
    Bridge/Verse
eb--|--------------|---------------|--------------|--------------|
Bb--|--------------|---------------|--------------|--------------|
Gb--|--------------|---------------|--------------|--------------|
Db--|--------------|---------------|---------4-1-3|--------------|
Ab--|-1-1-1----1--1|--6---6-5-4----|--------------|-4s1----------|
Eb-0|-0-0-0----0--0|-0-0-0-----0-0-|6-8-7-0-0-----|0----0-7------|

eb--|--------------|---------------|--------------|--------------|
Bb--|--------------|---------------|--------------|--------------|
Gb--|--------------|---------------|--------------|--------------|
Db--|--------------|---------------|--------------|--------------|
Ab--|----4-0-------|---------6-5---|-2------------|--------------|
Eb-0|-0-0---7-0-0-6|-8-7-0-0--7-6-0|-2------------|--------------|

Tabbed By X1408Mata@live.com
Tap to rate this tab
 
# A B C D E F G H I J K L M N O P Q R S T U V W X Y Z