Guitaretab - guitar tabs
Song name
# A B C D E F G H I J K L M N O P Q R S T U V W X Y Z

Tourniquet - Somnambulism tab

Song: Somnambulism

From the album: Stop the bleeding
By: Tourniquet
Words & Music by: Ted Kirkpatrick
ęcopyright: 1990 Intense records


Turning: EADGBe
  

 - Intro -

Fade in
 ||--------------------------------------------------------------------------||
 ||--------------------------------------------------------------------------||
 ||--------------------------------------------------------------------------||
 ||--------------------------------------------------------------------------||
 ||--4-----4--4--5-----3--3--3--3--4-----4-----4--4-/7-----7-/9--6--6--7\4---||
 ||--2-----2--2--3-----1--1--1--1--2-----2-----2--2-/5-----5-/7--4--4--5\2---||
           .  .        .  .  .  .              .  .                            

 ||--------------------------------------------------------------------------||
 ||--------------------------------------------------------------------------||
 ||--------------------------------------------------------------------------||
 ||--------------------------------------------------------7-\6--4-----------||
 ||--4-----4--4--5-----3--3--3--3--4-----4-----4--4-/7-----5-\4--2-----------||
 ||--2-----2--2--3-----1--1--1--1--2-----2-----2--2-/5--------------3--5/2---||
           .  .        .  .  .  .  .           .  .                            

(two guitars)
 ||-------------------------||
 ||-------------------------||
 ||-------------------------||
 ||------0-----------5------|| ▀- guitar 2
 ||------------------2------||
 ||------3------------------||


      - Verse (two guitars) -

Guitar 1
 ||-------------------------------------------------------||
 ||-------------------------------------------------------||
*||-------------------------------------------------------||
*||-------------------------------------------------------||
 ||------4---4-4-----------2--4--4--5--5--4--4--3--0------||
 ||------2---2-2-----------0--2--2--3--3--2--2------------||
                           .  .  .  .  .  .  .            
                       _________________________________   _________________________________
                      | 1.                                | 2.
 ||-------------------------------------------------------|--------------------------------||
 ||-------------------------------------------------------|--------------------------------||
 ||-------------------------------------------------------|--------------------------------||*
 ||------------------------7-----6-----4-----------7------|-------------------------5-4-3--||*
 ||------4---4-4-----------5-----4-----2-----4--7---------|-----------3-4-3-4-5-6-5--------||
 ||------2---2-2------------------------------------------|-----6-5-6----------------------||


 Guitar 2
 ||-------------------------------------------------------||
 ||-------------------------------------------------------||
*||------3---3-3------------------------------------------||
*||---------------------------------------------5--2------||
 ||------------------------2--4--4--5--5--4--4------------||
 ||------------------------0--2--2--3--3--2--2------------||
                           .  .  .  .  .  .  .            
                       _________________________________   _________________________________
                      | 1.                                | 2.
 ||-------------------------------------------------------|--------------------------------||
 ||-------------------------------------------------------|--------------------------------||
 ||------3---3-3-----------------------------------5------|--------------------------------||*
 ||------------------------7-----6-----4----/3--6---------|-------------------------5-4-3--||*
 ||------------------------5-----4-----2------------------|-----------3-4-3-4-5-6-5--------||
 ||-------------------------------------------------------|-----6-5-6----------------------||


      - Chorus -
[ Tab from: http://www.guitaretab.com/t/tourniquet/46407.html ]
 ||-----------------------------------------------------------------------------------||
 ||-----------------------------------------------------------------------------------||
*||-----------------------------------------------------------------------------------||
*||-----------------------------------------------------------------------------------||
 ||----4----4----4------------5----5----5------------7----7----7------------4----4----||
 ||--0-2----2----2-2h3h5-3----3----3----3-3h5h7-5----5----5----5-3h5p3-2----2----2----||

   ____________________________  _____________________
  | 1.                          | 2.
 ||-----------------------------|----------------------|
 ||-----------------------------|----------------------|
 ||-----------------------------|--5--4-545454---------|*
 ||-----------------------------|---------------7--4---|*
 ||--------------------3--2--0--|----------------------|
 ||--0--2--3--2--3--5-----------|----------------------|


   Verse
   Chorus x2


Turning: eb Bb Gb Db Ab Eb


||--------------------------------------------------------------------||
||--------------------------------------------------------------------||
||--------------------------------------------------------------------||
||--------------------------------------------------------------------||
||----------5----------6----------4----------5----------6----------4--||
||--3-3-3-3-3--4-4-4-4-4--2-2-2-2-2--3-3-3-3-3--4-4-4-4-4--2-2-2-2-2--||
    . . . .    . . . .    . . . .    . . . .    . . . .    . . . .      

||--------------------------------------------------------------------||
||--------------------------------------------------------------------||
||--------------------------------------------------------------------||
||--------------------------------------------------------------------||
||----------5----------6----------4----------5----------4----------3--||
||--3-3-3-3-3--4-4-4-4-4--2-2-2-2-2--3-3-3-3-3--2-2-2-2-2--1-1-1-1-1--||
    . . . .    . . . .    . . . .    . . . .    . . . .    . . . .      


      - End riff -

played with two guitars (first time only the guitar 1)


Guitar 1 
||-----------------------------------------------------------------------||
||-----------------------------------------------------------------------||
||-----------------------------------------------------------------------||
||-------------------------------------------------7/10-8-9--------------||
||--2-------------8-7-6-7---------------------7-8---------------3p2p1-2--||
||--0---0-0-0-7-8-----------0-7-8-6-7---0-0-0----------------------------||
        . . .               .           . . .

||----------------------------------------------------------------------------------||
||----------------------------------------------------------------------------------||
||----------------------------------------------------------------------------------||
||-------------------------------------------------7/10-8-9--------9-10-9-----------||
||--2-------------8-7-6-7---------------------7-8-------------9-10--------10-9------||
||--0---0-0-0-7-8-----------0-7-8-6-7---0-0-0----------------------------------11---||
        . . .               .           . . .


Guitar 2
||-----------------------------------------------------------------------||
||-----------------------------------------------------------------------||
||-------------------------------------------------8/10-8-9--------------||
||----------------7-6-5-6---------------------9-10-----------------------||
||--2---------7-8-------------7-8-6-7---------------------------3p2p1-2--||
||--0---0-0-0---------------0-----------0-0-0----------------------------||
        . . .               .           . . .

||----------------------------------------------------------------------------------||
||----------------------------------------------------------------------------------||
||-------------------------------------------------8/10-8-9---------8-9-8-----------||
||----------------7-6-5-6---------------------9-10------------9-10--------10-9------||
||--2---------7-8-----------5-7-8-6-7------------------------------------------11---||
||--0---0-0-0---------------------------0-0-0---------------------------------------||
        . . .                           . . .

During solo, play chorus
Related for Somnambulism tab