Song name
# A B C D E F G H I J K L M N O P Q R S T U V W X Y Z

Tourniquet - Microscopic View Of A Telescopic Realm tab

-------------------------------------------------------------------------------
	     Microscopic View of a Telescopic Realm - Tourniquet
-------------------------------------------------------------------------------
Tabbed by: Jordan Hodges
Email:

Tuning: Drop D

e|------------------------------------------------------|
B|------------------------------------------------------|
G|------------------------------------------------------|
D|-77777777777--33333333333--00000000000--22222222222---|
A|-77777777777--33333333333--00000000000--22222222222---|
D|-77777777777--33333333333--00000000000--22222222222---|x2


0:19
e|----------------|  |----------------|  |----------------|  |---------------|
B|----------------|  |----------------|  |----------------|  |-----------5---|
G|--------9-------|  |--------10------|  |--------7-------|  |-----4-5-7-----|
D|-7-9-10---10-9--|  |-7-9-10---10-9--|  |-7-9-10---10-9--|  |-6-7-----------|
A|----------------|  |----------------|  |----------------|  |---------------|
D|----------------|x2|----------------|x2|----------------|x2|---------------|x2


0:37
e|------------------------------------------------------|
B|------------------------------------------------------|
G|------------------------------------------------------|
D|-77777777777--33333333333--00000000000--22222222222---|
A|-77777777777--33333333333--00000000000--22222222222---|
D|-77777777777--33333333333--00000000000--22222222222---|


0:46
e|------------------------------------------------------|
B|------------------------------------------------------|
G|------------------------------------------------------|
D|-77777777777--33333333333--00000000000--22222222222---|
A|-77777777777--33333333333--00000000000--22222222222---|
D|-77777777777--33333333333--00000000000--22222222222---|
   ...........  ...........  ...........  ...........

0:55
e|-------------------|
B|-------------------|
G|-------------------|
D|-777-666-555-333---|
A|-777-666-555-333---|
D|-777-666-555-333---|


0:59
e|---------------------------------------------------------------------|
B|---------------------------------------------------------------------|
G|-----7-7-------------5-5-------------3-3-------------2-2-------------|
D|-0-0-7-7-------------5-5-------------3-3-------------2-2---------0---|
A|-0-0-5-5----7h8\7~ --3-3---5/7-5~ ---1-1----3/5-4~ --0-0-----3p2-0---|
D|-0-0-------0--------------0----------------0---------------003p2-0---|
             .              .                .               ..


e|----------------------------------------------------------------|
B|----------------------------------------------------------------|
G|-----7-7--------------5-5-------------3-3--------------2-2(2)---|
D|-0-0-7-7--------------5-5-------------3-3--------------2-2(2)---|
A|-0-0-5-5----7h8/10~ --3-3---5/7-8~ ---1-1----4h5/7~ ---0-0(0)---|
D|-0-0-------0---------------0----------------0-------------------|
             .               .                .

1:16
e|--------------------------------------------------------------------------------------------|
B|--------------------------------------------------------------------------------------------|
G|--------------------------------------------------------------------------------------------|
D|7-777-7(7)-7-777-7-7-7-3-333-3(3)-3-333-3-3-3-0-000-0(0)-0-000-0-0-0-2-222-2(2)-2-222-2-2-2-|
A|7-777-7(7)-7-777-7-7-7-3-333-3(3)-3-333-3-3-3-0-000-0(0)-0-000-0-0-0-2-222-2(2)-2-222-2-2-2-|
D|7-777-7(7)-7-777-7-7-7-3-333-3(3)-3-333-3-3-3-0-000-0(0)-0-000-0-0-0-2-222-2(2)-2-222-2-2-2-|x3
  . ...        ...   .   . ...        ...   .   . ...        ...   .   . ...        ...   .   


1:43
e|--------------------------------------------------------------------|
B|--------------------------------------------------------------------|
G|----7-7-------------5-5-------------3-3-------------2-2-------------|
D|0-0-7-7-------------5-5-------------3-3-------------2-2---------0---|
A|0-0-5-5----7h8p7~ --3-3---5s7-5~ ---1-1----3s5-4~ --0-0-----3p2-0---|
D|0-0-------0--------------0----------------0---------------003p2-0---|
            .              .                .               ..


e|------------------------------------------------------------------------|
B|------------------------------------------------------------------------|
G|----7-7--------------5-5-------------3-3--------------2-2(2)------------|
D|0-0-7-7--------------5-5-------------3-3--------------2-2(2)------------|
A|0-0-5-5----7h8s10~ --3-3---5s7-8~ ---1-1----4h5s-7~ --0-0(0)---3/12\8---|
D|0-0-------0---------------0----------------0----------------------------|
            .               .                .


2:02
e|------------------------------------------------------|
B|------------------------------------------------------|
G|------------------------------------------------------|
D|-77777777777--33333333333--00000000000--22222222222---|
A|-77777777777--33333333333--00000000000--22222222222---|
D|-77777777777--33333333333--00000000000--22222222222---|
   ...........  ...........  ...........  ...........


2:11
e|------------------------------------------------------|
B|------------------------------------------------------|
G|------------------------------------------------------|
D|-77777777777--33333333333--00000000000--22222222222---|
A|-77777777777--33333333333--00000000000--22222222222---|
D|-77777777777--33333333333--00000000000--22222222222---|



2:20
e|-----------------------------------------|
B|-----------------------------------------|
G|--------------------3---------5----------|
D|-0-00--6p5-0-00-2h3-3-00--3h5-5-00-5h6---|
A|-0-00--6p5-0-00-2h3-1-00--3h5-3-00-5h6---|
D|-0-00--6p5-0-00-2h3---00--3h5---00-5h6---|x7
     ..        ..       ..        ..


2:50
e|-----------------------------------------------|
B|-----------------------------------------------|
G|-----------------------------------------------|
D|-0-00-3p2-0-6-000-3p2-0-6-000-3p2-0-6-000-77---|
A|-0-00-3p2-0-6-000-3p2-0-6-000-3p2-0-6-000-77---|
D|-0-00-3p2-0-6-000-3p2-0-6-000-3p2-0-6-000-77---|x4
     ..     .   ...     .   ...     .   ...  


3:05
e|-----------------------------------------|
B|-----------------------------------------|
G|--------------------3---------5----------|
D|-0-00--6p5-0-00-2h3-3-00--3h5-5-00-5h6---|
A|-0-00--6p5-0-00-2h3-1-00--3h5-3-00-5h6---|
D|-0-00--6p5-0-00-2h3---00--3h5---00-5h6---|x4
     ..        ..       ..        ..


3:20
e|-----------------------------------------------|
B|-----------------------------------------------|
G|-----------------------------------------------|
D|-0-00-3p2-0-6-000-3p2-0-6-000-3p2-0-6-000-77---|
A|-0-00-3p2-0-6-000-3p2-0-6-000-3p2-0-6-000-77---|
D|-0-00-3p2-0-6-000-3p2-0-6-000-3p2-0-6-000-77---|x4
     ..     .   ...     .   ...     .   ...


3:34 solo starts

3:48
e|-----------------------------------------------|
B|-----------------------------------------------|
G|-----------------------------------------------|
D|-0-00-3p2-0-6-000-3p2-0-6-000-3p2-0-6-000-77---|
A|-0-00-3p2-0-6-000-3p2-0-6-000-3p2-0-6-000-77---|
D|-0-00-3p2-0-6-000-3p2-0-6-000-3p2-0-6-000-77---|x2
     ..     .   ...     .   ...     .   ...


3:53
e|----------------------------------------|
B|--------3(3)---------------------3(3)---|
G|--------2(2)---------------------2(2)---|
D|-0(0)---0(0)--------------0(0)---0(0)---|
A|-0(0)---------------------0(0)----------|
D|-0(0)----------3b(1/4)----0(0)----------|



e|-----------------------------------------------|
B|-----------------------------------------------|
G|-----------------------------------------------|
D|--------------------------5p3-2-0--------------|
A|-0-5-7/8(8)----0-5-7/8-7----------3h5p3-1(1)---|
D|-----------------------------------------------|



4:11
e|--------------------------------------|
B|--------------------------------------|
G|--------------------------------------|
D|--------------------------------------|
A|---3-5/7(7)------3-5/7/8-7-3/7-5(5)---|
D|-5-------------5----------------------|



5:05
e|------------------------------------------------------|
B|------------------------------------------------------|
G|------------------------------------------------------|
D|-77777777777--33333333333--00000000000--22222222222---|
A|-77777777777--33333333333--00000000000--22222222222---|
D|-77777777777--33333333333--00000000000--22222222222---|


5:13
e|--------------------------------------------------------------------------------------------|
B|--------------------------------------------------------------------------------------------|
G|--------------------------------------------------------------------------------------------|
D|7-777-7(7)-7-777-7-7-7-3-333-3(3)-3-333-3-3-3-0-000-0(0)-0-000-0-0-0-2-222-2(2)-2-222-2-2-2-|
A|7-777-7(7)-7-777-7-7-7-3-333-3(3)-3-333-3-3-3-0-000-0(0)-0-000-0-0-0-2-222-2(2)-2-222-2-2-2-|
D|7-777-7(7)-7-777-7-7-7-3-333-3(3)-3-333-3-3-3-0-000-0(0)-0-000-0-0-0-2-222-2(2)-2-222-2-2-2-|x4
  . ...        ...   .   . ...        ...   .   . ...        ...   .   . ...        ...   .   


5:49
e|-------------------------------------|
B|-------------------------------------|
G|-7h9p7-5-7-5-4-2-2h4p2-1b-2----------|
D|--------------------------------7(7)-|
A|---------------------------8-7--7(7)-|
D|--------------------------------7(7)-|





| /    Slide Up
| \    Slide Down
| h    Hammer-on
| p    Pull-off
| ~    Vibrato
| .    Palm Mute
| b( ) Bend (amount)
| ( )  Let Note Ring
===============================================================================
Tap to rate this tab
# A B C D E F G H I J K L M N O P Q R S T U V W X Y Z