Song name
# A B C D E F G H I J K L M N O P Q R S T U V W X Y Z

Tourniquet - In Death We Rise tab

This is my first tab, so if you notice any mistakes, or have questions, email me at
passiefist@hotmail.com
Thank you =)

e|------------------------|
B|------------------------|
G|------------------------|
D|------------------------|
A|-----------4--3--2--3---|
E|--1--3--4---------------|

e|-------------------------------------------------|
B|-------------------------------------------------|
G|-------------------------------------------------|
D|-------------------------------------------------|
A|-----------4--3--2--3----3--4--3--1--------------|
E|--1--3--4----------------------------4--3--1--0--|

|----------------|
|----------------|
|----------------|
|----------------|
|----4--1--3-----|
|-1-----------1--|

End of intro!
Tap to rate this tab
 
# A B C D E F G H I J K L M N O P Q R S T U V W X Y Z