Song name
# A B C D E F G H I J K L M N O P Q R S T U V W X Y Z

Tourniquet - Caixa De Raiva tab

Help us improve GuitareTab! Take a short survey!
E ||---------------------------------------------------------|
B ||---------------------------------------------------------|
G ||----------------------------------------------5-7br------|
D ||--5/7--7--7---7----5--5--5-5/7--10\7--7\5---7-------7-5--|
A ||--5/7--7--7---7----5--5--5-5/7--10\7--7\5----------------|
D ||--5/7--7--7-7-7--7-5--5--5-5/7--10\7--7\5----------------|
               .    .

E |--------------------------------------------------------------------||
B |--------------------------------------------------------------------||
G |--------------------------------------------------------------------||
D |--5/7--7--7---7----5--5--5-5/7--------------------------------------||
A |--5/7--7--7---7----5--5--5-5/7--------7p5h7p5h7p5--7-5-----7-5------||
D |--5/7--7--7-7-7--7-5--5--5-5/7-7-7-7-------------------9-7-----9-7--||
              .    .             . . .

E ||---------------||
B ||---------------||
G ||---------------||
D ||--0------------||
A ||--0-------2br--||
D ||--0----3-------||


E ||---------------------------|-----------------||
B ||---------------------------|-----------------||
G ||---------------------------|-----------------||
D ||--0-0-0-0-0-0-0-0-0--------|--------0-2-0 ~~-||
A ||--0-0-0-0-0-0-0-0-0--------|--0--2-----------||
D ||--0-0-0-0-0-0-0-0-0-3-5-6--|-----------------||
     . . . . . . . . .

E |------------------------------------------------------------|
B |------------------------------------------------------------|
G |------------------------------------------------------------|
D |--9--7--9---------9--7--9---------9--7--9--0--2--3--4--5-5--|
A |--9--7--9---------9--7--9---------9--7--9--0--2--3--4--5-5--|
D |--9--7--9--9-9-9--9--7--9--9-9-9--9--7--9--0--2--3--4--5-5--|
             . . .           . . .

E |------------------------------------------------------------------------|
B |------------------------------------------------------------------------|
G |------------------------------------------------------------------------|
D |--9--7--9------7h9p7----9--7--9------7h9p7----9--7--9--0--2--3--4--5-5--|
A |--9--7--9--9p7-------7--9--7--9--9p7-------7--9--7--9--0--2--3--4--5-5--|
D |--9--7--9---------------9--7--9---------------9--7--9--0--2--3--4--5-5--|


E |------------------------||
B |------------------------||
G |------------------------||
D |--9--7--9--0--3----6----||
A |--9--7--9--0--3----6----||
D |--9--7--9--0--3----6----||

Thats almost all of it, i havent been able to figure out the solo yet...
Related for Caixa De Raiva tab